Song name
# A B C D E F G H I J K L M N O P Q R S T U V W X Y Z

Misc Unsigned Bands - The Nodules - Axe Of Justice tab

Axe of Justice


standard tuning


Guitar 1 intro

E|---------------------------------------------------------------------------|
B|---------------------------------------------------------------------------|
G|---------------------------------------------------------------------------|
D|---------------------------------------------------------------------------|
A|-555-4-----444-3-------555-4---444-3-----555444333555444333555444333-------|
E|-333-2-----222-1-------333-2---222-1-----333222111333222111333222111-------|

guitar 2

E|---------------------------------------------------------------------------|
B|---------------------------------------------------------------------------|
G|---------------------------------------------------------0-00-2-3-5~-7~----|
D|---------------------------------------------------------------------------|
A|---------------------------------------------------------------------------|
E|-------xxx-------xxxx--------xx-----xx-x-----------------------------------|


main riff

guitar 1 repeat until end of verse 2

E|---------------------------------------------------------------|
B|---------------------------------------------------------------|
G|---------------------------------------------------------------|
D|------------------7--------------------7--------------------7--|
A|------------------5--------------------5--------------------5--|
E|------------------5--------------------5--------------------5--|

guitar 2  (all PALM MUTED) repeat until end of verse 2

E|---------------------------------------------------------------|
B|---------------------------------------------------------------|
G|---------------------------------------------------------------|
D|---------------------------------------------------------------|
A|---------------------------------------------------------------|
E|000000000000030506666000000000000030506666000000000000030506666|  

lyrics

verse 1

When justice seems lost
And the world's going crazy
When the line between insanity
And normality seems a little hazy


verse 2

Times like this - what you need
Something to break them all
One mighty strike
And watch them fall!

chorus

chorus riff (guitar 2)

E|-------------------------------------|
B|-------------------------------------|
G|-------------------------------------|
D|-----------------7-8-7-6-7-----------|
A|-----------------5-6-5-4-5-----------|
E|00000000000000000----------0000000000|  x2
  |------p.m------|          |---p.m---|

the axe of justice!                       x2


E|---------------------------------------------------------------------------|
B|---------------------------------------------------------------------------|
G|---------------------------------------------------------------------------|
D|----------------7-8-7-6-4--------------------------------------------------|
A|----------------5-6-5-4-2--------------------------------------------------|
E|0000000000000000-----------------------------------------------------------|
  |-----p.m------|

the axe of justice!


main riff

guitar 1 repeat until end of verse 3

E|---------------------------------------------------------------|
B|---------------------------------------------------------------|
G|---------------------------------------------------------------|
D|------------------7--------------------7--------------------7--|
A|------------------5--------------------5--------------------5--|
E|------------------5--------------------5--------------------5--|

guitar 2  (all PALM MUTED) repeat until end of verse 3

E|---------------------------------------------------------------|
B|---------------------------------------------------------------|
G|---------------------------------------------------------------|
D|---------------------------------------------------------------|
A|---------------------------------------------------------------|
E|000000000000030506666000000000000030506666000000000000030506666|  

lyrics

verse 3
It will break their legs
It will berak through stone
It's always right, never wrong
It's got a mind of its own!

solo 

guitar 1 (repeat until end of solo)

E|---------------------------------------------------------------------------|
B|---------------------------------------------------------------------------|
G|---------------------------------------------------------------------------|
D|---------------------------------------------------------------------------|
A|---------------------------------------------------------------------------|
E|xxxxxxxxxxxxxxxxxxxxxxxxxxxxxxxxxxxxxxxxxxxxxxxxxxxxxxxxxxxxxxxxxxxxxxxxxxx|


guitar 2

E|---------------------------------------------------------------|
B|---------------------------------------------------------------|
G|--------------------------------7b10r7-------------------------|
D|---------------------------55---7b10r7-5--------7----9-----11--|
A|000000000000022222223333355-5s7---------7-7777-9-9-11-11-12--12|
E|---------------------------------------------------------------|

E|--------------------------------------------------------------------|
B|-----------12b14r12-------------------------------------------------|
G|-----------12b14r12-10----------------12-----13-----15--------------|
D|--------11------------12--12-12-12--14--14-15--15-17--17-17-17-17-17|
A|12-12-12------------------------------------------------------------|
E|--------------------------------------------------------------------|

E|---------------------------------------------------------------------------|
B|---------------------------------------------------------------------------|
G|---------------------------------------------------------------------------|
D|19-17-----19-17-----19-17-----19-17-----19-17-----19b22=========r19--------|
A|-----19-17-----19-17-----19-17-----19-17-----19-17-------------------------|
E|---------------------------------------------------------------------------|


chorus

chorus

chorus riff (guitar 2)

E|-------------------------------------|
B|-------------------------------------|
G|-------------------------------------|
D|-----------------7-8-7-6-7-----------|
A|-----------------5-6-5-4-5-----------|
E|00000000000000000----------0000000000|  x2
  |------p.m------|          |---p.m---|

the axe of justice!                       x2


E|---------------------------------------------------------------------------|
B|---------------------------------------------------------------------------|
G|---------------------------------------------------------------------------|
D|----------------7-8-7-6-4--------------------------------------------------|
A|----------------5-6-5-4-2--------------------------------------------------|
E|0000000000000000-----------------------------------------------------------|
  |-----p.m------|

the axe of justice!


main riff


guitar 1 (w = whammy bar)

E|--------------------------------------------|
B|------3w-3-0w--5w-7w----7w-5w-0w-2w---------|
G|---------------------7w---------------------|
D|--------------------------------------------|
A|--------------------------------------------|
E|--------------------------------------------| x 2 


guitar 2

E|---------------------------------------------------------------|
B|---------------------------------------------------------------|
G|---------------------------------------------------------------|
D|---------------------------------------------------------------|
A|---------------------------------------------------------------|
E|000000000000030506666000000000000030506666000000000000030506666| until end

ending

guitar 1
 
            A

E|-----------|
B|----------3|
G|----------3|
D|----------3|
A|-----------|
E|-----------|

This song is nice and heavy.

Tap to rate this tab
# A B C D E F G H I J K L M N O P Q R S T U V W X Y Z