Song name
# A B C D E F G H I J K L M N O P Q R S T U V W X Y Z

Misc Unsigned Bands - Moss Icon - Guatemala tab

Riff played throughout the song:

E||----------------------|----------------------|----------------------|
B||----------------------|----------------------|----------------------|
G||----------------------|----------------------|----------------------|
D||----------------------|-------9---------9----|-------9---------9----|
A||-------7---------7----|------------7---------|--7---------7---------|
E||--0---------0---------|--0-------------------|----------------------|


                                        PM      PM     
        
----------------------|----------------------|-------||
----------------------|-----------------8----|--8----||
----------------------|----------------------|-------||
-------7---------7----|-------7----7---------|-------||
--7---------7---------|--7-------------------|-------||
----------------------|----------------------|-------||
Tap to rate this tab
# A B C D E F G H I J K L M N O P Q R S T U V W X Y Z