Song name
# A B C D E F G H I J K L M N O P Q R S T U V W X Y Z

Misc Unsigned Bands - Blacktop Manhattan - Hollywise tab

-------------------------------------------------------------------------------
			     Hollywise - Blacktop Manhattan
-------------------------------------------------------------------------------
Tabbed by:guitarfreak7542
Email:pitsteelers177@msn.com
Tuning:Standard
Distortion On

Intro:2x 
e|---------------------------------------------------------------------------|
B|---------------------------------------------------------------------------|
G|---------------------------------------------------------------------------|
D|---------------------------------------------------------------------------|
A|---1---4---4---3---3---1---4---8---6---------------------------------------|
E|---------------------------------------------------------------------------|

Intro/Verse:2x 
e|---------------------------------------------------------------------------|
B|---------------------------------------------------------------------------|
G|---------------------------------------------------------------------------|
D|---3-3-3-3-3--6-6-6-6-6--10-10-10-10-10--8-8-8-8-8-------------------------|
A|---1-1-1-1-1--4-4-4-4-4--8--8--8--8--8---6-6-6-6-6-------------------------|
E|---------------------------------------------------------------------------|

Verse:3x 
e|---------------------------------------------------------------------------|
B|---------------------------------------------------------------------------|
G|---------------------------------------------------------------------------|
D|---33333333----------66666666----------------------------------------------|
A|---11111111-44444444-44444444-66666666-------------------------------------|
E|------------22222222----------44444444-------------------------------------|
P.M.....................................

Verse:Then 4th time 
e|---------------------------------------------------------------------------|
B|---------------------------------------------------------------------------|
G|---------------------------------------------------------------------------|
D|---33333333----------66666666----------------------------------------------|
A|---11111111-44444444-44444444-66666666-------------------------------------|
E|------------22222222----------44444444-------------------------------------|
P.M.............................Slowly Release Here

Chorus:4x
e|---------------------------------------------------------------------------|
B|---------------------------------------------------------------------------|
G|---------------------------------------------------------------------------|
D|---3-3-3-3-3--6-6-6-6-6--10-10-10-10-10--8-8-8-8-8-------------------------|
A|---1-1-1-1-1--4-4-4-4-4---8--8--8--8--8--6-6-6-6-6-------------------------|
E|---------------------------------------------------------------------------|

Verse:3x 
e|---------------------------------------------------------------------------|
B|---------------------------------------------------------------------------|
G|---------------------------------------------------------------------------|
D|---33333333----------66666666----------------------------------------------|
A|---11111111-44444444-44444444-66666666-------------------------------------|
E|------------22222222----------44444444-------------------------------------|
P.M.....................................

Verse:Then 4th time 
e|---------------------------------------------------------------------------|
B|---------------------------------------------------------------------------|
G|---------------------------------------------------------------------------|
D|---33333333----------66666666----------------------------------------------|
A|---11111111-44444444-44444444-66666666-------------------------------------|
E|------------22222222----------44444444-------------------------------------|
P.M.............................Slowly Release Here

Bridge:1x 
e|---------------------------------------------------------------------------|
B|---------------------------------------------------------------------------|
G|---------------------------------------------------------------------------|
D|---------------------------------------------------------------------------|
A|---1---4---4---3---3---1---4---8---6-6b-6b-6b------------------------------|
E|---------------------------------------------------------------------------|

Solo:1x
e|---------------------------------------------------------------------------|
B|---9-11-12-14--15-15-18-18-16-16-14-16-18-18-18-16-16-14-14-14-14--13------|
G|-----------------------------------------------------------------15--15----|
D|---------------------------------------------------------------------------|
A|---------------------------------------------------------------------------|
E|---------------------------------------------------------------------------|

Solo Cont.
e|---------------------------------------------------------------------------|
B|---13-13-14-13-14-16-14-16-18-16-19-19-------------------------------------|
G|-14------------------------------------------------------------------------|
D|---------------------------------------------------------------------------|
A|---------------------------------------------------------------------------|
E|---------------------------------------------------------------------------|

Outro:4x 
e|---------------------------------------------------------------------------|
B|---------------------------------------------------------------------------|
G|---------------------------------------------------------------------------|
D|---3-3-3-3-3--6-6-6-6-6--10-10-10-10-10--8-8-8-8-8-------------------------|
A|---1-1-1-1-1--4-4-4-4-4---8--8--8--8--8--6-6-6-6-6-------------------------|
E|---------------------------------------------------------------------------|

| b  bend
| /  slide up
| \  slide down
| h  hammer-on
| p  pull-off
| ~  vibrato
| +  harmonic
| x  Mute note
===============================================================================
Tap to rate this tab
 
# A B C D E F G H I J K L M N O P Q R S T U V W X Y Z