Song name
# A B C D E F G H I J K L M N O P Q R S T U V W X Y Z

Misc Unsigned Bands - Revol - The Rush tab

e|---------------------------------------------------------------|
b|---------------------------------------------------------------|
g|---0----------0---------0----------0---------------------------|
d|-----0----------0---------0----------0-------------------------|
a|-------3----------7---------3----------7--7--7h9p7--5--3-3-3-3-|
E|0----------0----------0---------0------------------------------|

e|---------------------------------------------------------------|
b|---------------------------------------------------------------|
g|---0----------0---------0----------0---------------------------|
d|-----0----------0---------0----------0-------------------------|
a|-------3----------7---------3----------7--7--7h9p7--5--3-3-3-3-|
E|0----------0----------0---------0------------------------------|

e|--------------------------------------------------------------|
b|--------------------------------------------------------------|
g|---0----------0-----------------------------------------------|
d|-----3----------7---------------------------------------------|
a|-------0----------0-------------------------------------------|
E|0----------0--------------------------------------------------|

e|--------------------------------------------------------------|
b|-------0-----------0----------0-----------0-----------0-------|
g|---0-----------0-----------0----------0-----------0-----------|
d|--------------------------------------------------------------|
a|7----------9-----------12---------15----------12--------------|
E|--------------------------------------------------------------|

e|---------------------------------------------------------------|
b|-------0-----------0----------0-----------0-----------0--------|
g|---0-----------0-----------0----------0-----------0------------|
d|---------------------------------------------------------------|
a|7----------9-----------12---------15----------12-----------12\-|
E|---------------------------------------------------------------|

e|--------------------------------------------------------------|
b|--------------------------------------------------------------|
g|--0---0---0---0---0---0---0---0---0---0---0---0---0---0-------|
d|--------------------------------------------------------------|
a|3---3---3---3---2---2---2---2---0---0---0---0---2---2---------|
E|--------------------------------------------------------------|

e|---------------------------------------------------------------|
b|---------------------------------------------------------------|
g|---0----------0---------0----------0---------------------------|
d|-----0----------0---------0----------0-------------------------|
a|-------3----------7---------3----------7--7--7h9p7--5--3-3-3-3-|
E|0----------0----------0---------0------------------------------|

e|--------------------------------------------------------------|
b|--------------------------------------------------------------|
g|---0----------0-----------------------------------------------|
d|-----3----------7---------------------------------------------|
a|-------0----------0-------------------------------------------|
E|0----------0--------------------------------------------------|

e|---------------------------------------------------------------|
b|-------0-----------0----------0-----------0-----------0--------|
g|---0-----------0-----------0----------0-----------0------------|
d|---------------------------------------------------------------|
a|7----------9-----------12---------15----------12-----------12\-|
E|---------------------------------------------------------------|

e|---------------------2-3-2------------------------------------|
b|-----------------2-3-------3-2--------------------------------|
g|-------------2-3---------------3-2-----------------------2-3--|
d|---------2-3-----------------------3-2---------------2-3------|
a|----2-3--------------------------------3-2-------2-3----------|
E|2-3----------------------------------------3-2-3--------------|

e|----2-3-2---------------------------------------2-3-2---------|
b|2-3-------3-2-------------------------------2-3-------3-2-----|
g|--------------3-2-----------------------2-3---------------3-2-|
d|------------------3-2---------------2-3-----------------------|
a|----------------------3-2-------2-3---------------------------|
E|--------------------------3-2-3-------------------------------|

e|--------------------------------------------------------------|
b|--------------------------------------------------------------|
g|--------------------------------------------------------------|
d|3-2-----------------------------------------------------------|
a|----3-2-------------------------------------------------------|
E|--------3-2-0-------------------------------------------------|
Tap to rate this tab
# A B C D E F G H I J K L M N O P Q R S T U V W X Y Z