Song name
# A B C D E F G H I J K L M N O P Q R S T U V W X Y Z

Misc Unsigned Bands - Take Everything - Just Walk Away tab

JUST WALK AWAY
Tuning: Drop C (CGCFAD)
check the band TAKE EVERYTHING out at: www.myspace.com/takeeverything510


Intro Circle Pit (Listen For Timing)

0:00-0:30
----------------------------------------|
----------------------------------------|
----------------------------------------|
----------55555555--88888888------------|
-00000000-33333333--66666666-66666666---|
-00000000--------------------66666666---|

----------------------------------------|
----------------------------------------|
----------------------------------------|
---------5555555--8888888---------------|
-0000000-3333333--6666666-66665555------|
-0000000------------------66665555------|

Stomps:
0:33-1:11
----------------------------------------|
----------------------------------------|
----------------------------------------|
-0-----1-----4--------------------------|
-0-0-0-1-0-0-4-0-0-1h3-0-4p3-0-1h3------|
-0-0-0-1-0-0-4-0-0-1h3-0-4p3-0-1h3------|


----------------------------------------|
----------------------------------------|
----------------------------------------|
-0-----1-----4--------------------------|
-0-0-0-1-0-0-4-0-0-1h3-0-4p3-1----------|
-0-0-0-1-0-0-4-0-0-1h3-0-4p3-1----------|


1:12-1:21
----------------------------------------|
----------------------------------------|
----------------------------------------|
----------------------------------------|
-0~--0~--0~--//pick scrape//-0(mute)----|
-0~--0~--0~-//pick scrape//--0(mute)----|


1:24-1:55

Left Guitar:
----------------------------------------|
----------------------------------------|
----------------------------------------|
----------------------------------------|
-0-0-0-0-0----0-0-0-0-1-0-1-0-----------|
-0-0-0-0-0----0-0-0-0-1-0-1-0-----------|


Right Guitar:
----------------------------------------|
----------------------------------------|
----------------------------------------|
----------------------------------------|
-0-0-0-0-0------------------------------|
-0-0-0-0-0------------------------------|

Left Guitar:
----------------------------------------|
----------------------------------------|
----------------------------------------|
----------------------------------------|
-0-0-0-0-0------------------------------|
-0-0-0-0-0------------------------------|

Right Guitar:

----------------------------------------|
----------------------------------------|
----------------------------------------|
----------------------------------------|
-0-0-0-0-0------------------------------|
-0-0-0-0-0--0-0-0-0-1-0-4/1-------------|
(make sure you only play the one string on the right guitar durring this part)


Stomps:
1:56-2:22
----------------------------------------|
----------------------------------------|
----------------------------------------|
-0-----1-----4--------------------------|
-0-0-0-1-0-0-4-0-0-1h3-0-4p3-0-1h3------|
-0-0-0-1-0-0-4-0-0-1h3-0-4p3-0-1h3------|


----------------------------------------|
----------------------------------------|
----------------------------------------|
-0-----1-----4--------------------------|
-0-0-0-1-0-0-4-0-0-1h3-0-4p3-1----------|
-0-0-0-1-0-0-4-0-0-1h3-0-4p3-1----------|


2:22-2:35
----------------------------------------|
----------------------------------------|
----------------------------------------|
----------------------------------------|
-0--------0-------0------0--------------|
-0--------0-------0------0--------------|

2:35-3:05
Left Guitar:

----------------------------------------|
----------------------------------------|
----------------------------------------|
----------------------------------------|
-0-0-0-0-0----0-0-0-0-1-0-1-0-----------|
-0-0-0-0-0----0-0-0-0-1-0-1-0-----------|


Right Guitar:
----------------------------------------|
----------------------------------------|
----------------------------------------|
----------------------------------------|
-0-0-0-0-0------------------------------|
-0-0-0-0-0------------------------------|

Left Guitar:
----------------------------------------|
----------------------------------------|
----------------------------------------|
----------------------------------------|
-0-0-0-0-0------------------------------|
-0-0-0-0-0------------------------------|

Right Guitar:

----------------------------------------|
----------------------------------------|
----------------------------------------|
----------------------------------------|
-0-0-0-0-0------------------------------|
-0-0-0-0-0--0-0-0-0-1-0-4/1-------------|
Tap to rate this tab
# A B C D E F G H I J K L M N O P Q R S T U V W X Y Z