Song name
# A B C D E F G H I J K L M N O P Q R S T U V W X Y Z

Misc Unsigned Bands - Take Everything - No Pity tab

No Pity
Tuning: Drop C (CGCFAD)
check the band TAKE EVERYTHING out at: www.myspace.com/takeeverything510


No Pity

----------------------------|
----------------------------|
----------------------------|
----------------------------|
-00000000-------------------|
-00000000--0-0--0--0--------|

----------------------------|
----------------------------|
----------------------------|
----------------------------|
-00000000-------------------|
-00000000--0-44444-111------|

----------------------------|
----------------------------|
----------------------------|
----------------------------|
-00000000-------------------|
-00000000--0-0--0--0--------|

----------------------------|
----------------------------|
----------------------------|
----------------------------|
-00000000-------------------|
-00000000--0-44444-111------|

----------------------------|
----------------------------|
----------------------------|
----------------------------|
-00000000--0-0--0--0--------|
-00000000--0-0--0--0--------|

----------------------------|
----------------------------|
----------------------------|
----------------------------|
-00000000--0-44444-111------|
-00000000--0-44444-111------|


----------------------------|
----------------------------|
----------------------------|
----------------------------|
-00000000--0-0--0--0--------|
-00000000--0-0--0--0--------|

----------------------------|
----------------------------|
----------------------------|
----------------------------|
-00000000-------------------|
-00000000--0-44444-111------|

0:37-0:42
----------------------------|
----------------------------|
----------------------------|
----------------------------|
-0---0--/-------------------|
-0---0--/-------------------|

0:43-1:03
----------------------------|
----------------------------|
----------------------------|
-----------------7-7-7------|
-0-0--0--0-0--0--5-5-5-6-6--|
-0-0--0--0-0--0--------6-6--|

----------------------------|
----------------------------|
----------------------------|
----------------------------|
-0-0--0--0-0--0--5-5-5-4-4--|
-0-0--0--0-0--0--5-5-5-4-4--|

---------------------------|
---------------------------|
---------------------------|
-----------------7-7-7-----|
-0-0--0--0-0--0--5-5-5-6-6-|
-0-0--0--0-0--0--------6-6-|

----------------------------|
----------------------------|
----------------------------|
-0-0-0-0-0-0----------------|
-6-6-6-6-6-6--00-0-00-------|
--------------00-0-00-------|

1:04-1:47
--------------------------------|
--------------------------------|
--------------------------------|
--------------------------------|
-0--0-0--3-0--5-3h5p3-----------|
-0--0-0--3-0--5-------6-5-3-0-5-|

--------------------------------|
--------------------------------|
--------------------------------|
--------------------------------|
-0--0-0--3-0--5--66666-555-333--|
-0--0-0--3-0--5--66666-555-333--|

1:55-2:37

------------------------------------------|
------------------------------------------|
------------------------------------------|
-------------5/3--------------------------|
-0-00000-0-0-5/3--0-00000-0-4-00-3-00-1---|
-0-00000-0-0------0-00000-0-4-00-3-00-1---|

------------------------------------------|
------------------------------------------|
------------------------------------------|
-------------5/3--------------------------|
-0-00000-0-0-5/3--0-00000-0-3-00-1-00-4---|
-0-00000-0-0------0-00000-0-3-00-1-00-4---|
Tap to rate this tab
 
# A B C D E F G H I J K L M N O P Q R S T U V W X Y Z