Song name
# A B C D E F G H I J K L M N O P Q R S T U V W X Y Z

Misc Unsigned Bands - Isaryce - Legacy tab

Clean
-------------------------3-2-----|x8|
-5---5-3-5-3-----------------5---|x8|
---4---------2-4-5-3-5-3---------|x8|
---------------------------------|x8|
---------------------------------|x8|
---------------------------------|x8|

Distorted
-------------------------3-2-----|x4|
-5---5-3-5-3-----------------5---|x4|
---4---------2-4-5-3-5-3---------|x4|
---------------------------------|x4|
---------------------------------|x4|
---------------------------------|x4|

------------|
------------|
-0----------|
-2---4------|
-----5---3--|
------------|

----------------------------------------------------------------|x4|
----------------------------------------------------------------|x4|
----------------------------------------------------------------|x4|
-----3-3-5-5-3-3-1-1-0-0----------------------------------------|x4|
-3-3---------------------1-1-1-1-1-------------4-4-3-3-6-6-5-5--|x4|
-----------------------------------4-4-3-3-4-4------------------|x4|

--------------------------------|x2|
--------------------------------|x2|
--------------------------------|x2|
-5------3-2---2-0-----3-2---2-0-|x2|
-5--3-5-----3-----3-5-----3-----|x2|
--------------------------------|x2|


----------------------------------------------------------------|x4|
----------------------------------------------------------------|x4|
----------------------------------------------------------------|x4|
-----3-3-5-5-3-3-1-1-0-0----------------------------------------|x4|
-3-3---------------------1-1-1-1-1-------------4-4-3-3-6-6-5-5--|x4|
-----------------------------------4-4-3-3-4-4------------------|x4|


----------------------------------------------------------------|x2|
-----------------------------------------------------1-1--------|x2|
---------------------------------------------1-1-2-2-----4-4-2-2|x2|
---------5-5-3-3-1-1-0-0-------------3-3-5-5--------------------|x2|
-3-3-5-5-----------------1-1-3-3-3-3----------------------------|x2|
----------------------------------------------------------------|x2|

-------------------------3-2-----|x2|
-5---5-3-5-3-----------------5---|x2|
---4---------2-4-5-3-5-3---------|x2|
---------------------------------|x2|
---------------------------------|x2|
---------------------------------|x2|

----------------------------------------------------------------|x4|
----------------------------------------------------------------|x4|
----------------------------------------------------------------|x4|
-----3-3-5-5-3-3-1-1-0-0----------------------------------------|x4|
-3-3---------------------1-1-1-1-1-------------4-4-3-3-6-6-5-5--|x4|
-----------------------------------4-4-3-3-4-4------------------|x4|

Solo goes here, but I'm not quite sure how it goes.

----------------------------------------------------------------|x4|
----------------------------------------------------------------|x4|
----------------------------------------------------------------|x4|
-----3-3-5-5-3-3-1-1-0-0----------------------------------------|x4|
-3-3---------------------1-1-1-1-1-------------4-4-3-3-6-6-5-5--|x4|
-----------------------------------4-4-3-3-4-4------------------|x4|

-------------------------3-2-----|x4|
-5---5-3-5-3-----------------5---|x4|
---4---------2-4-5-3-5-3---------|x4|
---------------------------------|x4|
---------------------------------|x4|
---------------------------------|x4|

Clean
-------------------------3-2-----|x4|
-5---5-3-5-3-----------------5---|x4|
---4---------2-4-5-3-5-3---------|x4|
---------------------------------|x4|
---------------------------------|x4|
---------------------------------|x4|
Tap to rate this tab
 
# A B C D E F G H I J K L M N O P Q R S T U V W X Y Z