Song name
# A B C D E F G H I J K L M N O P Q R S T U V W X Y Z

Misc Unsigned Bands - Conspiracy - Welt tab

Help us improve GuitareTab! Take a short survey!
Band: AM Conspiracy
Song: Welt
Tuning: Drop C (C G C F A D)
Tabbed by: kevdarkness@hotmail.com

This is a great song that features in the game SmackDown vs Raw 2008.


Intro:

D|-------------------------------|	
A|-------------------------------|	
F|--------10---------10----10----|	
C|-------------------------------|	
G|--------8----------8-----8-----| X 2  
C|-0-0--0-----0-0--0----0--------|

D|-------------------------------|
A|-------------------------------|
F|--------9---------9-----9------|
C|-------------------------------|
G|--------7---------7-----7------| X 2
C|-0-0--0-----0-0--0----0--------|

D|-------------------------------|	
A|-------------------------------|	
F|--------10---------10----10----|	
C|-------------------------------|	
G|--------8----------8-----8-----| X 2  
C|-0-0--0-----0-0--0----0--------|

D|-------------------------------|
A|-------------------------------|
F|--------9---------9-----9------|
C|-------------------------------|
G|--------7---------7-----7------| X 2
C|-0-0--0-----0-0--0----0--------|


Verse:


D|-------------------------------|	
A|-------------------------------|	
F|-------------------------------|	
C|-------------------------------|	
G|--------8----------8-----8-----| X 2  
C|-0-0--0-----0-0--0----0--------|

D|-------------------------------|	
A|-------------------------------|	
F|-------------------------------|	
C|-------------------------------|	
G|--------7----------7-----7-----| X 2  
C|-0-0--0-----0-0--0----0--------|

D|-------------------------------|	
A|-------------------------------|	
F|-------------------------------|	
C|-------------------------------|	
G|--------8----------8-----8-----| X 2  
C|-0-0--0-----0-0--0----0--------|

D|-------------------------------|	
A|-------------------------------|	
F|-------------------------------|	
C|-------------------------------|	
G|--------7----------7-----7-----| X 2  
C|-0-0--0-----0-0--0----0--------|

This part is not played by a guitar, anyways I tabbed it:

D|----------------10---------------------------|
A|-------------------10-8-----10-8-6----5------|
F|--7------5-----------------------------------|
C|---------------------------------------------|
G|---------------------------------------------|
C|---------------------------------------------|


Then comes the intro part:

D|-------------------------------|	
A|-------------------------------|	
F|--------10---------10----10----|	
C|-------------------------------|	
G|--------8----------8-----8-----| X 2  
C|-0-0--0-----0-0--0----0--------|

D|-------------------------------|
A|-------------------------------|
F|--------9---------9-----9------|
C|-------------------------------|
G|--------7---------7-----7------| X 2
C|-0-0--0-----0-0--0----0--------|


Verse 2:

D|-------------------------------|	
A|-------------------------------|	
F|-------------------------------|	
C|-------------------------------|	
G|--------8----------8-----8-----| X 2  
C|-0-0--0-----0-0--0----0--------|

D|-------------------------------|	
A|-------------------------------|	
F|-------------------------------|	
C|-------------------------------|	
G|--------7----------7-----7-----| X 2  
C|-0-0--0-----0-0--0----0--------|

D|-------------------------------|	
A|-------------------------------|	
F|-------------------------------|	
C|-------------------------------|	
G|--------8----------8-----8-----| X 2  
C|-0-0--0-----0-0--0----0--------|

D|-------------------------------|	
A|-------------------------------|	
F|-------------------------------|	
C|-------------------------------|	
G|--------7----------7-----7-----| X 2  
C|-0-0--0-----0-0--0----0--------|


D|----------------10---------------------------|
A|-------------------10-8-----10-8-6----5------|
F|--7------5-----------------------------------|
C|---------------------------------------------|
G|---------------------------------------------|
C|---------------------------------------------|


Chorus:


D|----------------------------------------------------|
A|----------------------------------------------------|
F|----------------------------------------------------|
C|-0---10h12-8--8-8---5-5-5-3-6--3-3-3-6--------------|
G|-0---10h12-8--8-8---5-5-5-3-6--3-3-3-6--------------|
C|-0---10h12-8--8-8---5-5-5-3-6--3-3-3-6--------------| X 4
                              PM. . .

Riff:

D|-------------------------------|	
A|-------------------------------|	
F|--------10---------10----10----|	
C|-------------------------------|	
G|--------8----------8-----8-----| X 2  
C|-0-0--0-----0-0--0----0--------|

D|-------------------------------|
A|-------------------------------|
F|--------9---------9-----9------|
C|-------------------------------|
G|--------7---------7-----7------| X 2
C|-0-0--0-----0-0--0----0--------|

D|-------------------------------|	
A|-------------------------------|	
F|--------10---------10----10----|	
C|-------------------------------|	
G|--------8----------8-----8-----| X 2  
C|-0-0--0-----0-0--0----0--------|

D|-------------------------------|
A|-------------------------------|
F|--------9---------9-----9------|
C|-------------------------------|
G|--------7---------7-----7------| X 2
C|-0-0--0-----0-0--0----0--------|




D|-------------------------------|	
A|-------------------------------|	
F|-------------------------------|	
C|-------------------------------|	
G|--------8----------8-----8-----| X 2  
C|-0-0--0-----0-0--0----0--------|

D|-------------------------------|	
A|-------------------------------|	
F|-------------------------------|	
C|-------------------------------|	
G|--------7----------7-----7-----| X 2  
C|-0-0--0-----0-0--0----0--------|

Chorus:

D|----------------------------------------------------|
A|----------------------------------------------------|
F|----------------------------------------------------|
C|-0---10h12-8--8-8---5-5-5-3-6--3-3-3-6--------------|
G|-0---10h12-8--8-8---5-5-5-3-6--3-3-3-6--------------|
C|-0---10h12-8--8-8---5-5-5-3-6--3-3-3-6--------------| X 6
                              PM. . .

Outro:

D|-------------------------------|	
A|-------------------------------|	
F|--------10---------10----10----|	
C|-------------------------------|	
G|--------8----------8-----8-----| X 2  
C|-0-0--0-----0-0--0----0--------|

D|-------------------------------|
A|-------------------------------|
F|--------9---------9-----9------|
C|-------------------------------|
G|--------7---------7-----7------| X 2
C|-0-0--0-----0-0--0----0--------|

D|-------------------------------|	
A|-------------------------------|	
F|--------10---------10----10----|	
C|-------------------------------|	
G|--------8----------8-----8-----| X 2  
C|-0-0--0-----0-0--0----0--------|

D|-------------------------------|
A|-------------------------------|
F|--------9---------9-----9------|
C|-------------------------------|
G|--------7---------7-----7------| X 2
C|-0-0--0-----0-0--0----0--------|
Related for Conspiracy - Welt tab