Song name
# A B C D E F G H I J K L M N O P Q R S T U V W X Y Z

Misc Unsigned Bands - El Kingg - Understand tab

-------------------------------------------------------------------------------
			     Understand - THE KINGG
-------------------------------------------------------------------------------
Tabbed by: The KINGG
Email:i_am_king@rocketmail.com

Tuning:Drop C
Part 1a- thick Chorus, a little tremolo
d|---------------------------------------------------------------------------|
A|----------0------------0-------------0-------------0-----------------------|
F|-------0-----0-------0----0-------0-----0--------0---0---------------------|
C|----4---------4---4---------4---4---------4----4--------4------------------|
G|--2-------------2-------------2-------------2------------------------------|
C|---------------------------------------------------------------------------|
Part 1b
d|---------------------------------------------------------------------------|
A|--------0------------0------------0-------------0--------------------------|
F|------0---0--------0---0--------0---0---------0---0------------------------|
C|----5-------5----5-------5---3--------3----3--------0----------------------|
G|--3------------3-----------1-------------1---------------------------------|
C|---------------------------------------------------------------------------|
Part1c
e|------------------------------------------------------------------------------|
A|---------0----------------0-------------0----------------0-------0------------|
F|-------0---------------0--------------0---------------0----------0------------|
C|-----4--------------4---------------4---------------4------------4------------|
G|---2--------2--2--2-----------2-2-2--------2--2--2---------------2------------|
C|------------------------------------------------------------------------------|
Part2a- Heavy, Grinding Distortion
d|---------------------------------|
A|---------------------------------|
F|---------------------------------|
C|---2-2---2-2---1-1---1-1------0--|
G|---2-2---2-2---1-1---1-1------0--|
C|---2-2---2-2---1-1---1-1------0--| x x   x x   x x   x x
Part2b
d|------------------------------|
A|---------0+-----------0+------|
F|-------0----0-------0---------|
C|-----4--------4---4------2-2--|
G|---2------------2--------2-2--|
C|---2------------2--------2-2--|                        x x
Part2c
d|---------------------------------------------------------------------------|
A|---------0+---------0+---------0+----------0+------------------------------|
F|-------0---0------0---0------0---0-------0---0-----------------------------|
C|-----5------5---5-------5---3------3---3------3----------------------------|
G|---3----------3-----------1----------1-------------------------------------|
C|---3----------3-----------1----------1-------------------------------------|
Part3
d|-------------------------------------------------------------------------------|
A|-------------------------------------------------------------------------------|
F|-------------------------------------------------------------------------------|
C|-------------------------------------------------------------------------------|
G|-------------------------------------------------------------------------------|
C|--0-000-000-000-000-000-000-000-000-000-000-000-000-000-0012-121212--------|---|
xxxxxxxxxxxxxxxxxxxxxxxxxxxxxxxxxxxxxxxxxxxxxxxxxxxxxxxxxxxxxxxxx

d|---------------------------------------------------------------------------|
A|---------------------------------------------------------------------------|
F|---------------------------------------------------------------------------|
C|-----------------------------------------------------------------------(1--|
G|-----------------------------------------------------------------------(1--|
C|-121212-121212-101010-999-999-777-777-101010-999-777-555-777-555-333-11(1--|-
xxxxxxxxxxxxxxxxxxxxxxxxxxxxxxxxxxxxxxxxxxxxxxxxxxxxxxxxxxxxxxxxxxxxxx


| /  slide up
| \  slide down
| h  hammer-on
| p  pull-off
| ~  vibrato
| +  harmonic
| x  Palm Mute note
| b  bend
| r  release
| ( let ring for a long time
===============================================================================
Tap to rate this tab
 
# A B C D E F G H I J K L M N O P Q R S T U V W X Y Z