Guitaretab - guitar tabs
Song name
# A B C D E F G H I J K L M N O P Q R S T U V W X Y Z

Misc Unsigned Bands - Metalmilitiaman - Through Tragedy And Redemption tab

This is a song I wrote entitled Through Tragedy And Redemption. The lyrics are 
going to be at the bottom.

     PM   PM        PM                    PM             PM   PM        PM    
     Q    Q    Q    Q       E   E   E  E  E  E  E  E     Q    Q    Q    Q     
D||----------------------|----------------------------|----------------------|
A||----------------------|----------------------------|----------------------|
F||----------------------|----------------------------|----------------------|
C||----------------------|----------------------------|----------------------|
G||------------5---------|--5h--8p--5--L--------7--L--|------------5---------|
C||--0----0---------0----|----------------0-----------|--0----0---------0----|


       PM                 PM   PM        PM                 PM         
  Q    Q    Q     Q       Q    Q    Q    Q       Q     Q    Q    Q     
-----------------------|----------------------|-----------------------|
-----------------------|----------------------|-----------------------|
-----------------------|----------------------|-----------------------|
-----------------------|----------------------|-----------------------|
--4---------4h----5----|------------8---------|--8p----7---------7----|
-------0---------------|--8----8---------8----|-------------7---------|


  PM   PM         PM           PM                 PM   PM        PM    
  Q    Q     Q    Q       Q    Q    Q     Q       Q    Q    Q    Q     
-----------------------|-----------------------|----------------------|
-----------------------|-----------------------|----------------------|
-----------------------|-----------------------|----------------------|
-----------------------|-----------------------|----------------------|
------------10---------|--8---------7h----8----|------------5---------|
--7----7----------8----|-------8---------------|--0----0---------0----|


                PM             PM   PM        PM           PM               
  E   E   E  E  E  E  E  E     Q    Q    Q    Q       Q    Q    Q     Q     
----------------------------|----------------------|-----------------------|
----------------------------|----------------------|-----------------------|
----------------------------|----------------------|-----------------------|
----------------------------|----------------------|-----------------------|
--5h--8p--5--L--------7--L--|------------5---------|--4---------4h----5----|
----------------0-----------|--0----0---------0----|-------0---------------|


  PM   PM        PM                 PM           PM   PM         PM    
  Q    Q    Q    Q       Q     Q    Q    Q       Q    Q     Q    Q     
----------------------|-----------------------|-----------------------|
----------------------|-----------------------|-----------------------|
----------------------|-----------------------|-----------------------|
----------------------|-----------------------|-----------------------|
------------8---------|--8p----7---------7----|------------10---------|
--8----8---------8----|-------------7---------|--7----7----------8----|


       PM                                                             
  Q    Q    Q     Q       Q    Q    Q    Q       Q    Q    Q    Q     
-----------------------|----------------------|----------------------|
-----------------------|----------------------|----------------------|
-----------------------|----------------------|----------------------|
-----------------------|--0----L----L----L----|--L----L----L----L----|
--8---------8h----L----|--0----L----L----L----|--L----L----L----L----|
-------8---------------|--0----L----L----L----|--L----L----L----L----|


    PM   PM   PM   PM      PM   PM   PM   PM                               
    Q    Q    Q    Q       Q    Q    Q    Q       E  E  E  E  E  E  E  E   
|-----------------------|----------------------|--------------------------|
|-----------------------|----------------------|--------------------------|
|*----------------------|----------------------|--------------------------|
|*----------------------|----------------------|--------------------------|
|-----------------------|----------------------|--8--8--8--8--8--8--8--8--|
|---0----0----0----0----|--0----0----0----0----|--------------------------|


                             PM   PM   PM   PM      PM   PM   PM   PM    
  E  E  E  E  E  E  E  E     Q    Q    Q    Q       Q    Q    Q    Q     
--------------------------|----------------------|----------------------|
--------------------------|----------------------|----------------------|
--------------------------|----------------------|----------------------|
--------------------------|----------------------|----------------------|
--7--7--7--7--7--7--7--7--|----------------------|----------------------|
--------------------------|--8----8----8----8----|--8----8----8----8----|


   E   E   E   E   E   E   E   E     E  E  E  E  E  E  E  E   3x
----------------------------------|---------------------------||
----------------------------------|---------------------------||
----------------------------------|--------------------------*||
----------------------------------|--------------------------*||
--10--10--10--10--10--10--10--10--|--8--8--8--8--8--8--8--8---||
----------------------------------|---------------------------||

[ Tab from: http://www.guitaretab.com/m/misc-unsigned-bands/176095.html ]
  PM   PM   PM   PM      PM   PM   PM   PM                               
  Q    Q    Q    Q       Q    Q    Q    Q       E  E  E  E  E  E  E  E   
----------------------|----------------------|--------------------------|
----------------------|----------------------|--------------------------|
----------------------|----------------------|--------------------------|
----------------------|----------------------|--------------------------|
----------------------|----------------------|--8--8--8--8--8--8--8--8--|
--0----0----0----0----|--0----0----0----0----|--------------------------|


                             PM   PM   PM   PM      PM   PM   PM   PM    
  E  E  E  E  E  E  E  E     Q    Q    Q    Q       Q    Q    Q    Q     
--------------------------|----------------------|----------------------|
--------------------------|----------------------|----------------------|
--------------------------|----------------------|----------------------|
--------------------------|----------------------|----------------------|
--7--7--7--7--7--7--7--7--|----------------------|----------------------|
--------------------------|--8----8----8----8----|--8----8----8----8----|


   E   E   E   E   E   E   E   E     E  E  E  E  E  E  E  E     
----------------------------------|---------------------------||
----------------------------------|---------------------------||
----------------------------------|--------------------------*||
----------------------------------|--------------------------*||
--10--10--10--10--10--10--10--10--|--8--8--8--8--8--8--8--8---||
----------------------------------|---------------------------||


   Supposed to be a pick slide here                                            
   W                                  W                   Q    Q    Q    Q     
-----------------------------------|-------------------|----------------------|
-----------------------------------|-------------------|----------------------|
-----------------------------------|-------------------|-------L----L----L----|
-----------------------------------|--0----------------|--L----L----L----L----|
-----------------------------------|--0----------------|--L----L----L----L----|
--12S------------------------------|--0----------------|--L----L--------------|


    PM   PM   PM   PM                PM          PM                 
    Q    Q    Q    Q        H        H           H        H         
|-----------------------|---------------------|--------------------|
|-----------------------|---------------------|--------------------|
|*----------------------|--10-----------------|-----------9--------|
|*----------------------|---x-----------------|-----------x--------|
|-----------------------|---8-----------------|-----------7--------|
|---0----0----0----0----|------------0--------|--0-----------------|


                         PM   PM   PM   PM                PM        
  Q    Q    Q    Q       Q    Q    Q    Q        H        H         
----------------------|----------------------|---------------------|
----------------------|----------------------|---------------------|
--L----L----L----L----|----------------------|---------------------|
--L----L----L----L----|----------------------|---------------------|
--L----L----L----L----|----------------------|--12-----------------|
----------------------|--8----8----8----8----|------------8--------|


  PM                                                         
  Q     Q     Q    Q       H        H         4x             
------------------------|---------------------||-----------||
------------------------|---------------------||-----------||
------------------------|--------------------*||-----------||
-------------------7----|--L--------L--------*||-----------||
-------10p----8----7----|--L--------L---------||-----------||
--8----------------7----|--L--------L---------||-----------||

LYRICS:

That day my heart had died
I have never lost that much before
And now youíre gone forever
Through many tears I cried your name

And all through despair
I found my new life
Although I lost you
I feel whole inside

Now my heart has healed
And I live my new life
Through the many struggles
That I face every day
You have to pick yourself up
Youíve got your whole life to lead

Through tragedy and redemption
I feel the holy light
That shines upon me
And onto this day

All my life, Iíve been looking to the past
But now I know, itís time to carry on,
To wave good-bye to the past

And all through despair
I found my new life
Although I lost you
I feel whole inside

Through tragedy and redemption
I feel the holy light
That shines upon me
And onto this day






Duration Legend
---------------
W - whole
H - half
Q - quarter
E - 8th
S - 16th
T - 32nd
X - 64th
. - note dotted
|-n-|  - n-tuplets


Tablature Legend
----------------
L - tied note
x - dead note
g - grace note
(n) - ghost note
> - accentuded note
NH - natural harmonic
AH - artificial harmonic
TH - tapped harmonic
SH - semi harmonic
PH - pitch harmonic
h - hammer on
p - pull off
b - bend
br - bendRelease
pb - preBend
pbr - preBendRelease
brb - bendReleaseBend
\n/ - tremolo bar dip
\n - tremolo bar dive
-/n - tremolo bar Release up
/n\ - tremolo bar inverted dip
/n - tremolo bar return
-\n - tremolo bar Release down
S - shift slide
s - legato slide
/ -  slide into from below or out of upwards
\ -  slide into from above or out of downwards
~ - vibrato
W - wide vibrato
tr - trill
TP - tremolo picking
T - tapping
S - slap
P - pop
< - fade in
^ - brush up
v - brush down
Related for Metalmilitiaman - Through Tragedy And Redemption tab