Song name
# A B C D E F G H I J K L M N O P Q R S T U V W X Y Z

Misc Unsigned Bands - Revol - Rising tab

                      Rising

e|----------------------------------------------------------|
b|---3-----3-----3-----3-----3-----3-----3-----3-----3------|
g|--0-----0-----0-----0-----0-----0-----0-----0-----0-------|
d|-2-----3-----2-----2-----3-----2-----2-----3-----2--------|
a|3-----2-----0-----3-----2-----0-----3-----2-----0---------|
E|----------------------------------------------------------|


                      pm    pm    pm    pm    pm    pm    pm
e|----------------------------------------------------------|
b|---------3------------------------------------------------|
g|------0-----5\------0--0--0--0--0--0--0--0--0--0--0--0--0-|
d|---2------------------------------------------------------|
a|3---------------------------------------------------------|
E|----------------------------------------------------------|

  pm  pm  pm  pm pm
e|----------------------------------------------------------|
b|----------------------------------------------------------|
g|0-0-0-0-0-0-0-0-0-2-2-2-3-5--5-5-5-5-3-5--5-5-5-5-7-7-----|
d|----------------------------------------------------------|
a|----------------------------------------------------------|
E|----------------------------------------------------------|


e|---------------------------------------------------------------|
b|---------------------------------------------------------------|
g|7-7-7-7-5-3--3-3-3-3-5-3--3-3-3-3-5-2--2-2-2-2-3-0--0-0-0-0-2--|
d|-------------------------------------------------------------3-|
a|---------------------------------------------------------------|
E|---------------------------------------------------------------|


e|--------------------------------------------------------------|
b|--------------------------------------------------------------|
g|3-3-3-3-0-2-3-7-5-7-3-7-5-0-2-3--0-2-0-2-3-3-3-3-2-0-0-0-2--3-|
d|--------------------------------------------------------------|
a|--------------------------------------------------------------|
E|--------------------------------------------------------------|


e|----------------------------------------------------------|
b|---3-----3-----3-----3-----3-----3-----3-----3-----3------|
g|--0-----0-----0-----0-----0-----0-----0-----0-----0-------|
d|-2-----3-----2-----2-----3-----2-----2-----3-----2--------|
a|3-----2-----0-----3-----2-----0-----3-----2-----0---------|
E|----------------------------------------------------------|


e|---------------------------------------------------------|
b|---------3-----------------------------------------------|
g|------0--------------------------------------------------|
d|---2-----------------------------------------------------|
a|3--------------------------------------------------------|
E|---------------------------------------------------------|

pm= palm mute
Tap to rate this tab
# A B C D E F G H I J K L M N O P Q R S T U V W X Y Z