Guitaretab - guitar tabs
Song name
# A B C D E F G H I J K L M N O P Q R S T U V W X Y Z

Misc Unsigned Bands - Chelsea Williams - Little Goodbye tab

                                 LITTLE GOODBYE
                              by Chelsea Williams
                       (From the Album CHELSEA WILLIAMS)

Tabs by Charredu (my first attempt at transcribing tabs and lyrics by ear)

Standard tuning.  Original key has capo on first fret

"Little Goodbye" Video: http://www.youtube.com/watch?v=aq1JuIEMpZU

Note:
Play the tabs between these "repeat" bar symbols twice.

e||-------------||
b||o-----------o||
g||-------------||
d||-------------||
a||o-----------o||
E||-------------||


Note: This is ASCII tab was generated from the POWERTAB version I also uploaded here 
allows you to listen to the tab in your computer)

    Q=78
    Intro:
||----------------|---------------|-2-------------|-2---------------||
||o-3-------3-----|-3-------3-----|---------3-----|---------3------o||
||------0-------0-|-----0-------0-|-----0-------0-|-----0-------0---||
||----4-------4---|---4-------4---|---4-------4---|---4-------4-----||
||o---------------|---------------|-0-----0-------|-2-----2--------o||
||--0-----0-------|-3-----3-------|---------------|-----------------||

   Verse:
              How light I felt
              the night drivin' up from Mahou
||----------------|---------------|-2-------------|-2---------------||
||o-3-------3-----|-3-------3-----|---------3-----|---------3------o||
||------0-------0-|-----0-------0-|-----0-------0-|-----0-------0---||
||----4-------4---|---4-------4---|---4-------4---|---4-------4-----||
||o---------------|---------------|-0-----0-------|-2-----2--------o||
||--0-----0-------|-3-----3-------|---------------|-----------------||

               How quickly I was brought
               down by a little goodbye
||----------------|---------------|-2-------------|-2---------------||
||o-3-------3-----|-3-------3-----|---------3-----|---------3------o||
||------0-------0-|-----0-------0-|-----0-------0-|-----0-------0---||
||----4-------4---|---4-------4---|---4-------4---|---4-------4-----||
||o---------------|---------------|-0-----0-------|-2-----2--------o||
||--0-----0-------|-3-----3-------|---------------|-----------------||

   Chorus:

            Noo... Donít you let her slip
            by without a sound
||----------------|---------------|-0-------------|-----------------||
||o---------0-----|-3-------3-----|---------0-----|-0--------------o||
||--0---0-------0-|-----0-------0-|-----0-------0-|-----0---0---0---||
||----2-------2---|---0-------0---|---2-------2---|---0-------0-----||
||o---------------|-2-----2-------|-3-----3-------|----------------o||
||--0-----0-------|---------------|---------------|-3-----3---------||

            Noo... it will be much better
[ Tab from: http://www.guitaretab.com/m/misc-unsigned-bands/176104.html ]
|---------------|---------------|-0-------------|-----------------|
|---------0-----|-3-------3-----|---------0-----|-0---------------|
|-0---0-------0-|-----0-------0-|-----0-------0-|-----0---0---0---|
|---2-------2---|---0-------0---|---2-------2---|---0-------0-----|
|---------------|-2-----2-------|-3-----3-------|-----------------|
|-0-----0-------|---------------|---------------|-3-----3---------|

            to fight one she couldn't bring down
                                                             D.C.
|---------------|---------------|-0-------------|-----------------*|
|---------0-----|-3-------3-----|---------0-----|-0---------------*|
|-0---0-------0-|-----0-------0-|-----0-------0-|-----0---0---0---*|
|---2-------2---|---0-------0---|---2-------2---|---0-------0-----*|
|---------------|-2-----2-------|-3-----3-------|-----------------*|
|-0-----0-------|---------------|---------------|-3-----3---------*|

Repeat above tabs:

Ooohhh... oohhh...

My hurried mind
is quiet maybe just this one night
This isn't right
And no one saw it coming
up from behind

Noo... Donít you let her slip
by without a sound
Noo... it will be much better
to fight one she couldn't bring down


Outtro:

    Ooohhh...
    Ooohhh...
||----------------|---------------|-2-------------|-2---------------||
||o-3-------3-----|-3-------3-----|---------3-----|---------3------o||
||------0-------0-|-----0-------0-|-----0-------0-|-----0-------0---||
||----4-------4---|---4-------4---|---4-------4---|---4-------4-----||
||o---------------|---------------|-0-----0-------|-2-----2--------o||
||--0-----0-------|-3-----3-------|---------------|-----------------||

    Ooohhh...
    Ooohhh...
||----------------|---------------|-2-------------|-2---------------||
||o-3-------3-----|-3-------3-----|---------3-----|---------3------o||
||------0-------0-|-----0-------0-|-----0-------0-|-----0-------0---||
||----4-------4---|---4-------4---|---4-------4---|---4-------4-----||
||o---------------|---------------|-0-----0-------|-2-----2--------o||
||--0-----0-------|-3-----3-------|---------------|-----------------||


	      How quickly I was brought
|---------------|---------------|-2-------------|-2---------------|
|-3-------3-----|-3-------3-----|---------3-----|---------3-------|
|-----0-------0-|-----0-------0-|-----0-------0-|-----0-------0---|
|---4-------4---|---4-------4---|---4-------4---|---4-------4-----|
|---------------|---------------|-0-----0-------|-2-----2---------|
|-0-----0-------|-3-----3-------|---------------|-----------------|


  down by a little goodbye
|--------------------------*|
|-3-------3----------^3----*|
|-----0-------0------^0----*|
|---4-------4--------^2----*|
|--------------------^2----*|
|-0-----0------------^0----*|


Words and Music by Chelsea Williams
http://www.myspace.com/chelseawilliams

Powertab version also available here. If not, email me at lucienpan2@yahoo.com

***************************************************************************************
* Generated using Power Tab Editor by Brad Larsen - http://powertab.guitarnetwork.org *
***************************************************************************************
Related for Chelsea Williams - Little Goodbye tab