Song name
# A B C D E F G H I J K L M N O P Q R S T U V W X Y Z

Misc Unsigned Bands - Noah Skiles - Dont Know tab

Hey this is just a song i wrote and need the tab for so please dont take it!

Palm mute- ^ with pm under
slide- /\
hammer-h

riff 1:
e|--------------------------------------------------|
B|--------------------------------------------------|
G|--------0-----------------------------------------|   
D|-000--0---0--333----3----111----1----5-5-5-5-77-0-|
A|-000---------333--3---3--111--1---1--5-5-5-5-77-0-|
D|-000---------333---------111---------5-5-5-5-77-0-|
   ^^^         ^^^         ^^^                 ^^
   pm          pm          pm                  pm
riff 2:
e|-------------------------------------------------------|
B|-------------------------------------------------------|
G|--------0----------------------------------------------|
D|-000--0---0--333----3----111--1-----------5-5-5-5-77-7-|
A|-000---------333--3---3--111---0h1-1-0h1--5-5-5-5-77-7-|
D|-000---------333---------111--------------5-5-5-5-77-7-|
   ^^^         ^^^         ^^^                      ^^
   pm          pm          pm                       pm
riff 3: (pm all)                                                            
e|----------------------------------------------------------------| 
B|----------------------------------------------------------------| 
G|---------------------------------0-2-2-2-0-2-2-2-0-2-2-2-0-2-2-2| 
D|-5-5-5-5-4-5-5-5-4-5-5-5-4-5-5-5-0-2-2-2-0-2-2-2-0-2-2-2-0-2-2-2| 
A|-5-5-5-5-4-5-5-5-4-5-5-5-4-5-5-5-0-0-0-0-0-0-0-0-0-0-0-0-0-0-0-0|
D|-5-5-5-5-4-5-5-5-4-5-5-5-4-5-5-5--------------------------------|
                                                                    
e|---------------------------------|                               
B|---------------------------------|                            
G|---------------------------------|                               
D|-0-2-2-2-0-2-2-2-0-2-2-2-0-2-2-2-|                               
A|-0-2-2-2-0-2-2-2-0-2-2-2-0-2-2-2-|                                
D|-0-2-2-2-0-2-2-2-0-2-2-2-0-2-2-2-|                                
                                                                  
riff 4:
e|--------------------------------------|
B|--------------------------------------|
G|--------------------------------------|
D|-2h4-4-4--2h4-4-4--2h4444--2h4444-/4\-|
A|-2h4-4-4--2h4-4-4--2h4444--2h4444-/4\-|
D|-2h4-4-4--2h4-4-4--2h4444--2h4444-/4\-|
                        ^^      ^^
                        pm      pm
riff 5:
e|-----------------------------------|
B|-----------------------------------|
G|-----------------------------------|
D|-0-0-0-0000-333--111---555h7-555h7-|
A|-0-0-0-0000-333--111---555h7-555h7-|
D|-0-0-0-0000-333--111---555h7-555h7-|
         ^^^^
         pm
Tap to rate this tab
 
# A B C D E F G H I J K L M N O P Q R S T U V W X Y Z