Song name
# A B C D E F G H I J K L M N O P Q R S T U V W X Y Z

Misc Unsigned Bands - Eternal Licks - A Subconscious Epiphany tab

A Subconscious Epiphany

Guitar 1:

Eb-------------3-----------------------3-----------------------3---------|
A#-----1---1-----1-----1-------1---1-----1-----1-------1---1-----1-----1-|
F#---2---2---2-----2---------0---0---0-----0---------2---2---2-----2-----|
C#-3-----------------3-----2-----------------2-----0-----------------0---|
Ab-----------------------------------------------------------------------|
Eb-----------------------------------------------------------------------|

Eb---------------------|
A#-----1---1-----1---1-|
F#---0---0-----0---0---|
C#---------------------|
Ab-3---------2---------|
Eb---------------------|

Guitar 2:

Eb-13----------------------12-------------------------------------------|
A#-------------------------------------------------15-------------------|
F#----------------------------------------------------------------------|
C#----------------------------------------------------------------------|
Ab----------------------------------------------------------------------|
Eb----------------------------------------------------------------------|

Eb--------------------|
A#-13--------12---13--|
F#--------------------|
C#--------------------|
Ab--------------------|
Eb--------------------|

My heart races for you, moving a mile a minute.
Every second we can be together.
The feeling of your love has no limits
I wake up every evening, to the shadows all around.
Searching for something that won't let me down.
I turn to look at you, with a smile on my face.
You say you'd rather be no other place.
Let me melt away in the comfort of your arms.
As we lie awake underneath the blanket of stars.
Words strewn about the screen; my thoughts few and far between.
Potential shaping, my mind regenerating.
Is this where I'm meant to be;
What will become of me.
Tap to rate this tab
 
# A B C D E F G H I J K L M N O P Q R S T U V W X Y Z