Song name
# A B C D E F G H I J K L M N O P Q R S T U V W X Y Z

Misc Unsigned Bands - Gravis - Raining Metal tab

Gravis - Raining Metal
Guitar Tab

Intro (Guitar 1)
Eb|---------------------------------|---------------------------------|
Bb|---------------------------------|---------------------------------|
Gb|---------------------------------|---------------------------------|rpt
Db|---------9---------------10------|---------9---------------8-------|x2
Ab|---------9---------------10------|---------9---------------8-------|
Eb|-0-0-0---7-------0-0-0---8-------|-0-0-0---7-------0-0-0---6-------|
(Guitar 2)
Eb|---------------------------------|---------------------------------|
Bb|---------------------------------|---------------------------------|
Gb|---------------------------------|---------------------------------|
Db|---------------------------------|-------------------------8-------|
Ab|---------------------------------|-------------------------8-------|
Eb|---------------------------------|-------------------------6-------|
(Both Guitars)
Eb|---------------------------------|---------------------------------|
Bb|---------------------------------|---------------------------------|
Gb|---------------------------------|---------------------------------|rpt
Db|---------9---------------10------|---------9---------------8-------|x2
Ab|---------9---------------10------|---------9---------------8-------|
Eb|-0-0-0---7-------0-0-0---8-------|-0-0-0---7-------0-0-0---6-------|

Eb|---------------------------------|---------------------------------|
Bb|---------------------------------|---------------------------------|
Gb|---------------------------------|---------------------------------|rpt
Db|-----9---9/109/10----8---8/9-8/9-|-----9---9/109/10----8---8-------|x2
Ab|-----9---9/109/10----8---8/9-8/9-|-----9---9/109/10----8---8-------|
Eb|-0-0-7---7/8-7/8-0-0-6---6/7-6/7-|-0-0-7---7/8-7/8-0-0-6---6-------|

Eb|---------------------------------|
Bb|---------------------------------|
Gb|---------------------------------|rpt
Db|---------5-------7-------5---4---|x2
Ab|---------5-------7-------5---4---|
Eb|-0-000-0-3-000-0-5-000-0-3---2---|

Verse (Both Guitars)          rpt x6
Eb|---------------------------------|---------------------------------|
Bb|---------------------------------|---------------------------------|
Gb|*-------------------------------*|---------------------------------|
Db|*----5---7---5---4---5---4---5--*|-----5---7---5---4~--------------|
Ab|-----5---7---5---4---5---4---5---|-----5---7---5---4~--------------|
Eb|-0-0-3-x-5-x-3-x-2-x-3-x-2-x-3---|-0-0-3-x-5-x-3-x-2~--------------|

Pre-Chorus (Both Guitars)
Eb|---------------------------------|
Bb|---------------------------------|
Gb|---------------------------------|
Db|-----5---7---5---4---5---4---5---|
Ab|-----5---7---5---4---5---4---5---|
Eb|-0-0-3-x-5-x-3-x-2-x-3-x-2-x-3---|

Eb|---------------------------------|---------------------------------|
Bb|---------------------------------|---------------------------------|
Gb|-4-----7-----4-------------------|---------------------------------|rpt
Db|-4-----7-----4-------------------|-5-----7-----5-------------------|x2
Ab|-2-----5-----2---333-333-333-333-|-5-----7-----5-------------------|
Eb|---------------------------------|-3-----5-----3---333-333-333-333-|
                    PM.............                   PM.............

Chorus (Both Guitars)         rpt x3
Eb|---------------------------------|---------------------------------|
Bb|---------------------------------|---------------------------------|
Gb|*--------5---------4------------*|---------5---------4-------------|
Db|*--------5---------4------------*|---------5---------4-------------|
Ab|---------3---------2-----2-2-2-2-|---------3---------2-------------|
Eb|-0-5-7-0-----0-0-0---------------|-0-5-7-0-----0-0-0---------------|
    PM.....     PM...       PM.....   PM.....     PM...

Repeat Verse
Pre-Solo x2 (Both Guitars)
Eb|---------------------------------|---------------------------------|
Bb|---------------------------------|---------------------------------|
Gb|---------------------------------|---------------------------------|
Db|-----9---9/109/10----8---8/9-8/9-|-----9---9/109/10----8---8-------|
Ab|-----9---9/109/10----8---8/9-8/9-|-----9---9/109/10----8---8-------|
Eb|-0-0-7---7/8-7/8-0-0-6---6/7-6/7-|-0-0-7---7/8-7/8-0-0-6---6-------|

Solo (Guitar 1)
Eb|-----------------------------7-9-|-10----------9p7h9------/15------|
Bb|-----------------------7-9-10----|---------------------------------|
Gb|-------------------7-9-----------|---------------------------------|
Db|-------------7-9-10--------------|---------------------------------|
Ab|-------7-9-10--------------------|---------------------------------|
Eb|-7-9-10--------------------------|---------------------------------|

Eb|-15p13p12--------15p13p12--------15p13p12--------15p13p12---------|
Bb|---------15p13p12--------15p13p12--------15p13p12--------15p13p12-|
Gb|------------------------------------------------------------------|
Db|------------------------------------------------------------------|
Ab|------------------------------------------------------------------|
Eb|------------------------------------------------------------------|

Eb|-15p13p12h15p13p12h15p13p12h15p13p12-/15b----------15b----------|
Bb|----------------------------------------------------------------|
Gb|----------------------------------------------------------------|
Db|----------------------------------------------------------------|
Ab|----------------------------------------------------------------|
Eb|----------------------------------------------------------------|

Eb|-15-14-13-12-------------------------------------------------------|
Bb|------------15-13-12-11------11------11------11------11----10b-----|
Gb|-----------------------9-9-9---9-9-9---9-9-9---9-9-9---9-9---------|
Db|-------------------------------------------------------------------|
Ab|-------------------------------------------------------------------|
Eb|-------------------------------------------------------------------|

Eb|--------------------------------------------------------------------------|
Bb|-15p14p12h15p14p12h15p14p12h15p14p12h16p15p12h16p15p12h16p15p12h16p15p12h-|
Gb|--------------------------------------------------------------------------|
Db|--------------------------------------------------------------------------|
Ab|--------------------------------------------------------------------------|
Eb|--------------------------------------------------------------------------|

Eb|--------------------------------------------------------------------------|
Bb|-17p16p12h17p16p12h17p16p12h17p16p12h18p17p12h18p17p12h18p17p12h18p17p12h-|
Gb|--------------------------------------------------------------------------|
Db|--------------------------------------------------------------------------|
Ab|--------------------------------------------------------------------------|
Eb|--------------------------------------------------------------------------|

Eb|--------------------------------------------------------------------------|
Bb|-15p14p12h15p14p12h15p14p12h15p14p12h16p15p12h16p15p12h16p15p12h16p15p12h-|
Gb|--------------------------------------------------------------------------|
Db|--------------------------------------------------------------------------|
Ab|--------------------------------------------------------------------------|
Eb|--------------------------------------------------------------------------|

Eb|-------------------------------------------------------------------------| 
Bb|-17p16p12h17p16p12h17p16p12h17p16p12-/17b-----------17-17b------------17-|
Gb|-------------------------------------------------------------------------|
Db|-------------------------------------------------------------------------|
Ab|-------------------------------------------------------------------------|
Eb|-------------------------------------------------------------------------|

Eb|-------------------------------------------------------------------------| 
Bb|-17b(18)-17b(18)-17b(18)-17b(18)-17b(18)-17b(18)-17b(19)~----------------|
Gb|-------------------------------------------------------------------------|
Db|-------------------------------------------------------------------------|
Ab|-------------------------------------------------------------------------|
Eb|-------------------------------------------------------------------------|
(Guitar 2)
Eb|---------------------------------|---------------------------------|
Bb|---------------------------------|---------------------------------|
Gb|---------------------------------|---------------------------------|rpt
Db|-----9---9/109/10----8---8/9-8/9-|-----9---9/109/10----8---8-------|x6
Ab|-----9---9/109/10----8---8/9-8/9-|-----9---9/109/10----8---8-------|
Eb|-0-0-7---7/8-7/8-0-0-6---6/7-6/7-|-0-0-7---7/8-7/8-0-0-6---6-------|

Pre-Chorus (Both Guitars)
Eb|---------------------------------|
Bb|---------------------------------|
Gb|---------------------------------|rpt
Db|-----5---7---5---4---5---4---5---|x2
Ab|-----5---7---5---4---5---4---5---|
Eb|-0-0-3-x-5-x-3-x-2-x-3-x-2-x-3---|

Eb|---------------------------------|---------------------------------|
Bb|---------------------------------|---------------------------------|
Gb|-4-----7-----4-------------------|---------------------------------|rpt
Db|-4-----7-----4-------------------|-5-----7-----5-------------------|x2
Ab|-2-----5-----2---333-333-333-333-|-5-----7-----5-------------------|
Eb|---------------------------------|-3-----5-----3---333-333-333-333-|
                    PM.............                   PM.............

Bridge (Both Guitars)
Eb|---------------------------------|
Bb|---------------------------------|
Gb|---------------------------------|rpt
Db|-----5---7---5---4---5---4---5---|x4
Ab|-----5---7---5---4---5---4---5---|
Eb|-0-0-3-x-5-x-3-x-2-x-3-x-2-x-3---|
(Bass & Drum Solo) (Both Guitars)                               rpt x2
Eb|---------------------------------|---------------------------------|
Bb|---------------------------------|---------------------------------|
Gb|---------------------------------|*-------------------------------*|rpt
Db|-----------------------------5---|*----5---7---5---4---5---4---5--*|x2
Ab|-----------------------------5---|-----5---7---5---4---5---4---5---|
Eb|-----------------------------3---|-0-0-3-x-5-x-3-x-2-x-3-x-2-x-3---|

(Guitar 1)                                                      rpt x2
Eb|---------------------------------|---------------------------------|
Bb|---------------------------------|---------------------------------|
Gb|---------------------------------|*-------------------------------*|
Db|-----------------------------5---|*----5---7---5---4---5---4---5--*|
Ab|-----------------------------5---|-----5---7---5---4---5---4---5---|
Eb|-----------------------------3---|-0-0-3-x-5-x-3-x-2-x-3-x-2-x-3---|
(Guitar 2)                                                      rpt x2
Eb|-/12--------------------(12)\----|---------------------------------|
Bb|---------------------------------|---------------------------------|
Gb|---------------------------------|*-------------------------------*|
Db|---------------------------------|*----5---7---5---4---5---4---5--*|
Ab|---------------------------------|-----5---7---5---4---5---4---5---|
Eb|---------------------------------|-0-0-3-x-5-x-3-x-2-x-3-x-2-x-3---|

(Guitar 1)                                                      rpt x2
Eb|---------------------------------|---------------------------------|
Bb|-5h7p5h7p5h7p5h7p5h7p5h7p5h7p5\--|---------------------------------|
Gb|---------------------------------|*-------------------------------*|
Db|---------------------------------|*----5---7---5---4---5---4---5--*|
Ab|---------------------------------|-----5---7---5---4---5---4---5---|
Eb|---------------------------------|-0-0-3-x-5-x-3-x-2-x-3-x-2-x-3---|
(Guitar 2)                                                      rpt x2
Eb|---------------------------------|---------------------------------|
Bb|---------------------------------|---------------------------------|
Gb|---------------------------------|*-------------------------------*|
Db|-----------------------------5---|*----5---7---5---4---5---4---5--*|
Ab|-----------------------------5---|-----5---7---5---4---5---4---5---|
Eb|-----------------------------3---|-0-0-3-x-5-x-3-x-2-x-3-x-2-x-3---|

Pre-Chorus (Both Guitars)
Eb|---------------------------------|
Bb|---------------------------------|
Gb|---------------------------------|rpt
Db|-----5---7---5---4---5---4---5---|x2
Ab|-----5---7---5---4---5---4---5---|
Eb|-0-0-3-x-5-x-3-x-2-x-3-x-2-x-3---|

Eb|---------------------------------|---------------------------------|
Bb|---------------------------------|---------------------------------|
Gb|-4-----7-----4-------------------|---------------------------------|rpt
Db|-4-----7-----4-------------------|-5-----7-----5-------------------|x2
Ab|-2-----5-----2---333-333-333-333-|-5-----7-----5-------------------|
Eb|---------------------------------|-3-----5-----3---333-333-333-333-|
                    PM.............                   PM.............
Repeat Chorus
End Note
Eb|---------------------------------|
Bb|---------------------------------|
Gb|---------------------------------|
Db|-2~------------------------------|
Ab|-2~------------------------------|
Eb|-0~------------------------------|
Tap to rate this tab
 
# A B C D E F G H I J K L M N O P Q R S T U V W X Y Z