Song name
# A B C D E F G H I J K L M N O P Q R S T U V W X Y Z

Misc Unsigned Bands - Cordillera - On The Wings Of An Asian tab

INTRO
e-----------------------------------------|
b-----------------------------------------|
g----9--9-9-9---9--9-9-9------------------|
d----9--9-9-9---9--9-9-9------------------|
a----7--7-7-7---7--7-7-7------------------|
e-----------------------------------------|

VERSE
GUITAR 1
e----------------------------------------------------------------------------|
b----10p8------10p8-------10p8------10p8-------------------------------------|
g----------9----------9---------9----------9---------------------------------|
d----------------------------------------------------------------------------|
a----------------------------------------------------------------------------|
e----------------------------------------------------------------------------|
GUITAR 2
e----------------------------------------------------------------------------|
b----------------------------------------------------------------------------|
g----9--999----9--999----9--999-----9--999-----------------------------------|
d----9--999----9--999----9--999-----9--999-----------------------------------|
a----7--777----7--777----7--777-----7--777-----------------------------------|
e----------------------------------------------------------------------------|


CHORUS
e----------------------------------------------------------------------------|
b----------------------------------------------------------------------------|
g---9--7--7-9-----9---7------------------------------------------------------|
d---9--7--7-9-----9---7-----7----5---2---------------------------------------|
a---7--5--5/7-----7---5-----7----5---2---------------------------------------|
e---------------------------5----3---0---------------------------------------|

myspace.com/cordilleramusic
Tap to rate this tab
# A B C D E F G H I J K L M N O P Q R S T U V W X Y Z