Guitaretab - guitar tabs
Song name
# A B C D E F G H I J K L M N O P Q R S T U V W X Y Z

Misc Unsigned Bands - Fulou - The Melody Of Spirit tab

Basically a little warmup/doodle.
Standard tuning.

Have fun, see if you can make it better (not really difficult is it?) 

                                                  
@@@@@@@@  @@@  @@@  @@@        @@@@@@   @@@  @@@  
@@@@@@@@  @@@  @@@  @@@       @@@@@@@@  @@@  @@@  
@@!       @@!  @@@  @@!       @@!  @@@  @@!  @@@  
!@!       !@!  @!@  !@!       !@!  @!@  !@!  @!@  
@!!!:!    @!@  !@!  @!!       @!@  !@!  @!@  !@!  
!!!!!:    !@!  !!!  !!!       !@!  !!!  !@!  !!!  
!!:       !!:  !!!  !!:       !!:  !!!  !!:  !!!  
:!:       :!:  !:!   :!:      :!:  !:!  :!:  !:!  
 ::       ::::: ::   :: ::::  ::::: ::  ::::: ::  
 :         : :  :   : :: : :   : :  :    : :  :  
 


E|---------|---------|---------|---------|
B|-1-------|-1-------|-1-------|-1-------|
G|---2-----|---2-----|---2-----|---2-----|
D|-----2---|-----2---|-----2---|-----2---|
A|---------|---------|---------|---------|
E|---------|---------|---------|---------|

E|---------|---------|---------|---------|
B|-0-------|-0-------|-0-------|-0-------|
G|---2-----|---2-----|---2-----|---2-----|
D|-----2---|-----2---|-----2---|-----2---|
A|---------|---------|---------|---------|
E|---------|---------|---------|---------|

E|---------|---------|---------|---------|
B|-0-------|-0-------|-0-------|-0---0---|
G|---0-----|---0-----|---0-----|---2-----|
D|-----0---|-----0---|-----0---|---------|
A|---------|---------|---------|---------|
E|---------|---------|---------|---------|

E|---------|---------|---------|---------|
B|-1-------|-1-------|-1-------|-1-------|
G|---2-----|---2-----|---2-----|---2-----|
D|-----2---|-----2---|-----2---|-----2---|
A|---------|---------|---------|---------|
E|---------|---------|---------|---------|
[ Tab from: http://www.guitaretab.com/m/misc-unsigned-bands/176263.html ]
E|---------|---------|---------|---------|
B|-5-------|-5-------|-5-------|-5-3-5---|
G|---5-----|---5-----|---5-----|---------|
D|-----5---|-----5---|-----5---|---------|
A|---------|---------|---------|---------|
E|---------|---------|---------|---------|

E|---------|---------|---------|---------|
B|-6-------|-6-------|-6-------|-6---8---|
G|---5-----|---5-----|---5-----|---------|
D|-----5---|-----5---|-----5---|---------|
A|---------|---------|---------|---------|
E|---------|---------|---------|---------|

E|---------|---------|---------|---------|
B|-5-------|-5-------|-5-------|-5---6---|
G|---5-----|---5-----|---5-----|---------|
D|-----5---|-----5---|-----5---|---------|
A|---------|---------|---------|---------|
E|---------|---------|---------|---------|

E|---------|---------|---------|---------|
B|-3-------|-3-------|-3-------|-3---5---|
G|---2-----|---2-----|---2-----|---------|
D|-----2---|-----2---|-----2---|---------|
A|---------|---------|---------|---------|
E|---------|---------|---------|---------|

E|---------|---------|---------|---------|
B|-1-------|-1-------|-1-------|-1---3---|
G|---2-----|---2-----|---2-----|---------|
D|-----2---|-----2---|-----2---|---------|
A|---------|---------|---------|---------|
E|---------|---------|---------|---------|

E|---------|---------|---------|---------|
B|-0-------|-0-------|-0-------|-0---1---|
G|---2-----|---2-----|---2-----|---------|
D|-----2---|-----2---|-----2---|---------|
A|---------|---------|---------|---------|
E|---------|---------|---------|---------|

E|---------|---------|---------|---------|
B|-0-------|-0-------|-0-------|-0-------|
G|---0-----|---0-----|---0-----|---0-----|
D|-----0---|-----0---|-----2---|-----0---|
A|---------|---------|---------|---------|
E|---------|---------|---------|---------|

E|-0-------|---------|---------|---------|
B|-1-------|---------|---------|---------|
G|-0-------|---------|---------|---------|
D|-2-------|---------|---------|---------|
A|-3-------|---------|---------|---------|
E|---------|---------|---------|---------|
Related for Fulou - The Melody Of Spirit tab
×
Fulou - The Melody Of Spirit