Song name
# A B C D E F G H I J K L M N O P Q R S T U V W X Y Z

Misc Unsigned Bands - Nu-heretic - St Pariah tab

INTRO

|-----------------------------------|-----------------------------------|
|-----------------------------------|-----------------------------------|
|-----------------------------------|-----------------------------------|
|-----------------------------------|--------------------------14-------|
|--------------------------14-15-14-|-----------------------------15-14-|
|-0-12-14-15-14-12-0-12-14----------|-0-12-14-15-14-12-0-12-14----------|

|-----------------------------------|
|-----------------------------------|
|-----------------------------------|
|-----------------------------------|
|---12h13-13-12-10---12h13-15-13-12-|
|-0----------------0----------------|

|-----------------------------------|-----------------------------------|
|-----------------------------------|-----------------------------------|
|-----------------------------------|-----------------------------------|
|-----------------------------------|--------------------------14-------|
|--------------------------14-15-14-|-----------------------------15-14-|
|-0-12-14-15-14-12-0-12-14----------|-0-12-14-15-14-12-0-12-14----------|

|-------------------------------------|
|-------------------------------------|
|-------------------------------------|
|-------------------------------------|
|-9-7-6-------------------------------|
|-------7-6-4-5-3-2-6-5-3-5-3-2-6-5-3-|
Tap to rate this tab
# A B C D E F G H I J K L M N O P Q R S T U V W X Y Z