Song name
# A B C D E F G H I J K L M N O P Q R S T U V W X Y Z

Misc Unsigned Bands - Bloodstains - Girlfriend tab

Help us improve GuitareTab! Take a short survey!
Bloodstains - Girlfriend

---------------------------------------------------|
---------------------------------------------------|
-----------9-9-9-9---------------------------------|
--9-9-9-9--9-9-9-9--7-7-7-7--9-9-9-9---------------|
--9-9-9-9--7-7-7-7--7-7-7-7--9-9-9-9---------------|
--7-7-7-7-----------5-5-5-5--7-7-7-7---------------|   (6x)



---------------------------------------------------|
---------------------------------------------------|
-----------9-9-9-9--11-11-11-11--11-11-11-11-------|
--9-9-9-9--9-9-9-9--11-11-11-11--11-11-11-11-------|
--9-9-9-9--7-7-7-7--9--9--9--9---9--9--9--9--------|
--7-7-7-7------------------------------------------|  (4x)



http://www.myspace.com/bloodstains03
Related for Bloodstains - Girlfriend tab