Song name
# A B C D E F G H I J K L M N O P Q R S T U V W X Y Z

Misc Unsigned Bands - Bloodstains - Zombie Love tab

Bloodstains - Zombie Love

---------------------------------------------------|
---------------------------------------------------|
---------------------------------------------------|
---------------------------------------------------|
----5-5-7-5-5---5-5-7-7-5-5------------------------|
--3-----------3------------------------------------|   (2x)



---------------------------------------------------|
---------------------------------------------------|
-----------7-7-7-7---------------------------------|
--5-5-5-5--7-7-7-7--2-2-2-2--5-5-5-5---------------|
--5-5-5-5--5-5-5-5--2-2-2-2--5-5-5-5---------------|
--3-3-3-3--------------------3-3-3-3---------------|   (6x)



---------------------------------------------------|
---------------------------------------------------|
--7-7-7-7--5-5-5-5---------------------------------|
--7-7-7-7--5-5-5-5--5-5-5-5--7-7-7-7---------------|
--5-5-5-5--3-3-3-3--5-5-5-5--7-7-7-7---------------|
--------------------3-3-3-3--5-5-5-5---------------|   (2x)



---------------------------------------------------|
---------------------------------------------------|
-----------7-7-7-7--9-9-9-9--7-7-7-7---------------|
--5-5-5-5--7-7-7-7--9-9-9-9--7-7-7-7---------------|
--5-5-5-5--5-5-5-5--7-7-7-7--5-5-5-5---------------|
--3-3-3-3------------------------------------------|   (2x)



http://www.myspace.com/bloodstains03
Tap to rate this tab
# A B C D E F G H I J K L M N O P Q R S T U V W X Y Z