Song name
# A B C D E F G H I J K L M N O P Q R S T U V W X Y Z

Misc Unsigned Bands - Ailing Atrophy - Hobys Song tab

Tabbed by: Ailing Atrophy
Tuning: Drop D

Intro
|-----------------------------------------|
|-----------------------------------------|
|-----------------------------------------|
|---------3----------------3--------------|
|------3-----3~---------3-----3~----------|
|----3----------------3-------------------|


|-----------------------------------------|
|-----------------------------------------|
|-----------------------------------------|
|----------5-----------------2------------|
|-------5-----5-----------2----2----------|
|----5-----------------2------------------|  [x3]
Tap to rate this tab
 
# A B C D E F G H I J K L M N O P Q R S T U V W X Y Z