Song name
# A B C D E F G H I J K L M N O P Q R S T U V W X Y Z

Misc Unsigned Bands - Devon Skoglund - Something I Thought Of Because I Was Bored tab

                      Intro
e|------------------------------------------------|
B|------------------------------------------------|
G|------------------------------------------------|
D|------------------------------------------------|x2
A|-9-99--77--99-99/11\9----9-99--77---99--955-----|
D|------------------------------------------------|

                      Verse
e|------------------------------------------------|
B|------------------------------------------------|
G|------------------------------------------------|
D|------------------------------------------------|x4
A|-9-99--77--99-99/11\9----9-99--77---99--955-----|
D|-0-00--00--00-0----------0-00--00---00--000-----|

                     Chorus
e|------------------------------------------------|
B|------------------------------------------------|
G|------------------------------------------------|x2
D|------------------------------------------------|
A|-5-55--77--5-5--59-9---5-55--77--5-5--53-3------|
D|-0-00--00--0-0--00-0---0-00--00--0-0--00-0------|

Verse
Chorus
Verse
Chorus
DONE!
Tap to rate this tab
# A B C D E F G H I J K L M N O P Q R S T U V W X Y Z