Song name
# A B C D E F G H I J K L M N O P Q R S T U V W X Y Z

Misc Unsigned Bands - Shovel Creek - Losing Light tab

Help us improve GuitareTab! Take a short survey!
|--------------------------------------------------------------------------|
|--------------------------------------------------------------------------|
|---------------------7--7p5-5--------------------7-9b-7s5-5h7p5-4h5p4-----|
|---------------------7--7p5-5--7b-5-5h7-5-5h7-7s9---------------------5---|
|3-3-3-3----------5-7---------------7--------------------------------------|
|--------3--3-5-7----------------------------------------------------------|

|--------------------------------------------------------------------------|
|--8b10-8------8s10s8-15-13-12h13------------------------------------------|
|---------9-7h9-------------------12-7s12-11-7s11-9-7h9p7-7p5s12-(let ring)|
|--------------------------------------------------------------------------|
|--------------------------------------------------------------------------|
|--------------------------------------------------------------------------|
Related for Shovel Creek - Losing Light tab