Song name
# A B C D E F G H I J K L M N O P Q R S T U V W X Y Z

Misc Unsigned Bands - Misc Unsigned Band - Stone Carved Moon tab

 (x2)
|---------------------------------------------|
|---------------------------------------------|
|---------------------------------------------|
|--------7-8-----7-8------------7-8--81178-7~-|
|----5-8-----5-8----0-5845--5-8---------------|
|-000---------------0-----00-------00---------|
pm...               .     ..       ..

|----------------------------------------------------------------|
|------------------------------------------------7h8p7-7-11------|
|----------------------------------------------------------11-8--|
|--------7-8-----7-8------------7-8--1187------------------------|
|----5-8-----5-8----0-5845--5-8----------11870--0--------------0-|
|-000---------------0-----00-----------------0--0--------------0-|
pm...               .     ..                 .  .              .

|--------------------|
|--------------------|
|-7-11-8-4-7---------|
|--------------------|
|-----------0-0-1-00-|
|-----------0-0-1-00-|
pm          . .   ..
Tap to rate this tab
# A B C D E F G H I J K L M N O P Q R S T U V W X Y Z