Song name
# A B C D E F G H I J K L M N O P Q R S T U V W X Y Z

Misc Unsigned Bands - Jacob Popowski - Forsaken tab

                           

                 FORSAKEN BY JACOB POPOWSKI

            THIS IS A COOL SONG I WROTE.
            ALSO, IM FOURTEEN AND I THINK ITS VERY GOOD FOR MY AGE





                      INTRO RIFF
e|-----5-----4-----5---7-----5-----4--|-4-4-4-4-4-4-4-4-4-4------------------|
B|-7-7-7-7-7-7-7-7-7-7-7-7-7-7-7-7-7--|-7-7-7-7-7-7-7-7-7-7------------------|
G|------------------------------------|--------------------------------------|
D|play three times--------------------|---end of intro-----------------------|
A|------------------------------------|--------------------------------------|
E|------------------------------------|--------------------------------------|

                      Main Riff
e|---------------------------------------------------------------------------|
B|-------------play 4 times--------------------------------------------------|
G|---------------------------------------------------------------------------|
D|---------------------------------------------------------------------------|
A|---------------------------------------------------------------------------|
E|-0-0-5-0-0-7-0-0-5-0-0-7-0-0-5-0-7-0-5-0-0-7-0-0-5-0-0-7-0-0-12PH----------|
   . . . . . . . . . . . . . . . . . . . . . . . . . . . . . . 
             Main Riff part 2
e|---------------------------------------------------------------------------|
B|----------play twice-------------------------------------------------------|
G|---------------------------------------------------------------------------|
D|---------------------------------------------------------------2-----------|
A|---------------------------------------------------------------2-----------|
E|-0-0-5-0-0-7-0-0-3-0-0-5-0-0-1-0-3-0-0-5-0-0-7-0-0-3-0-0-5-0-0-0-----------|
   . . . . . . . . . . . . . . . . . . . . . . . . . . . . . . .
                 Interlude
e|---------------------------------------------------0-----------------------|
B|---------------------------------------------------1---------1-------------|
G|---------------------------------------------------2-------2--2------------|
D|---------------------------------------------------2-----2-----2-----------|
A|-------2----------------2-----5-3-2-3-2--------2---3---3-------------------|
E|-0-2-3---3-2-0----0-2-3---3-2-----------3~~~~--0---0-0---------------------|


e|0----------------2------------0--------------------------------------------|
B|0---------0------2-------2----1---------1-----0-----0----------------------|
G|0-------0---0----2------2-2---0-------0---0---0----0-0---------------------|
D|2-----2-------2--2-----2---2--2-----2-------2-0---0---0-2------------------|
A|2---2------------2----2-------3---3-----------2--2------2------------------|
E|0-0--------------2--2---------0-0-------------3-3-------0------------------|


e|---------------------------------------------------------------------------|
B|----------------------play 4 times, the end with only one chord instead of-|
G|------------------------------------------------------------------------3--|
D|2-x-x-x-x-5-5-x-x-x-x-7-7-x-x-x-x-9-9-9------------------------------------|
A|2-x-x-x-x-5-5-x-x-x-x-7-7-x-x-x-x-9-9-9------------------------------------|
E|0-x-x-x-x-3-3-x-x-x-x-5-5-x-x-x-x-7-7-7------------------------------------|
                      SOLO
e|---------------------------------------------12-17p12----------------------|
B|------------12-17p12-----------------------13---------13-------------------|
G|---------13----------13------------------14--------------14----------------|
D|-------14---------------14-------------14-------------------14-------------|
A|-----14--------------------14----12h15-------------------------15----------|
E|12h15-------------------------15-------------------------------------------|


e|--------------------------------------------------15-19--------------------|
B|--------------15-20p15-------------------------16--------------------------|
G|-----------16----------16-------------------17-----------------------------|
D|--------17----------------17-------------17--------------------------------|
A|------17---------------------17----15h18-----------------------------------|
E|15h18---------------------------18-----------------------------------------|


e|-19-17-19-15-19-14-19-15-19-17-19-15-19-17-19-15-19-17-19-15-19-14-19-15---|
B|---------------------------------------------------------------------------|
G|---------------------------------------------------------------------------|
D|---------------------------------------------------------------------------|
A|---------------------------------------------------------------------------|
E|---------------------------------------------------------------------------|


e|-19-17-19-15-19-17-19-15-17-15-17-14-17-12-17-14-17-15-17-14-17-15-17-14---|
B|---------------------------------------------------------------------------|
G|---------------------------------------------------------------------------|
D|---------------------------------------------------------------------------|
A|---------------------------------------------------------------------------|
E|---------------------------------------------------------------------------|


e|15-14-15-13-15-12-15-13-15-14-15-13-15-14-15-13-15p13p12-------------------|
B|---------------------------------------------------------15p13p12----------|
G|------------------------------------------------------------------15p13p12-|
D|---------------------------------------------------------------------------|
A|---------------------------------------------------------------------------|
E|---------------------------------------------------------------------------|


e|---------------------------------------------------------------------------|
B|---------------------------------------------------------------------------|
G|---------------------------------------------------------------------------|
D|-15p13p12---------------------2--------------------------------------------|
A|----------15p13p12------------2--------------------------------------------|
E|-------------------15p13p12---0--------------------------------------------|



PH- pinch harmonic


ORDER OF SONG

INTRO RIFF X3
INTRO END X1
MAIN RIFF X4
MAIN RIFF PART 2 X2
INTERLUDE X1 (LONG BREAK BEFORE CHORDS START)
MAIN RIFF X4
MAIN RIFF PART 2 X2
SOLO
STRUMMING INTERLUDE PART X6
MAIN RIFF X4
MAIN RIFF PART 2 X2 THEN FADEOUT 
Tap to rate this tab
# A B C D E F G H I J K L M N O P Q R S T U V W X Y Z