Song name
# A B C D E F G H I J K L M N O P Q R S T U V W X Y Z

Misc Unsigned Bands - Yogatori - Fight Kikkoman tab

Yogatori (http://yogatori.com/)
Fight! Kikkoman

Cover and tabbed by:
WampusOnFire

The original video is here: http://yogatori.com/movies/kikkomaso/kikkomaso_e.htm

For the requests on my youtube cover video of the song 
I tabbed my version so everybody can play and sing along.

Tuning = Drop D (DADGBE)

Intro:

|---------------------------------|-----------------------------------|
|---------------------------------|-----------------------------------|
|---------------------------------|-----------------------------------|
|-7-7-7-7-5-5-5-5-3-3-3-3-2-2-2-2-|-7-7-7-7-5-5-5-5-3-3-3-3-2-2-2-2---|
|-7-7-7-7-5-5-5-5-3-3-3-3-2-2-2-2-|-7-7-7-7-5-5-5-5-3-3-3-3-2-2-2-2---|
|-7-7-7-7-5-5-5-5-3-3-3-3-2-2-2-2-|-7-7-7-7-5-5-5-5-3-3-3-3-2-2-2-2---|
  P.M. ---------------------------------------------------------------|

Solo:

|-8-5---5-7-3---3-5-1---1-3-------|-8-5---5-7-3---3-5-1---1-3-------|
|-----5-------3-------1-----5-6-5-|-----5-------3-------1-----5-6-5-|
|---------------------------------|---------------------------------|
|---------------------------------|---------------------------------|
|---------------------------------|---------------------------------|
|---------------------------------|---------------------------------|

Verse:

|---------------------------------|----------------------------------|
|---------------------------------|----------------------------------|
|---------------------------------|----------------------------------|
|-7-7-7-7-7-7-7-7-5-5-5-5-5-5-5-5-|-3-3-3-3-3-3-3-3-2-2-2-2-2-2-2-2--|
|-7-7-7-7-7-7-7-7-5-5-5-5-5-5-5-5-|-3-3-3-3-3-3-3-3-2-2-2-2-2-2-2-2--|
|-7-7-7-7-7-7-7-7-5-5-5-5-5-5-5-5-|-3-3-3-3-3-3-3-3-2-2-2-2-2-2-2-2--|
  P.M. --------------------------------------------------------------|

|---------------------------------|---------------------------------|
|---------------------------------|---------------------------------|
|---------------------------------|---------------------------------|
|-7-7-7-7-7-7-7-7-5-5-5-5-5-5-5-5-|-3-3-3-3-3-3-3-3-5-5-5-5-5-5-5-5-|
|-7-7-7-7-7-7-7-7-5-5-5-5-5-5-5-5-|-3-3-3-3-3-3-3-3-5-5-5-5-5-5-5-5-|
|-7-7-7-7-7-7-7-7-5-5-5-5-5-5-5-5-|-3-3-3-3-3-3-3-3-5-5-5-5-5-5-5-5-|
  P.M. --------------------------- (slowly release) - - - - - - - -

|-----------------------------------------|---------------------------------|
|-----------------------------------------|---------------------------------|
|-----------------------------------------|---------------------------------|
|-10-10-10-10-10-10-10-10-5-5-5-5-5-5-5-5-|-3-3-3-3-3-3-3-3-5-5-5-5-5-5-5-5-|
|-10-10-10-10-10-10-10-10-5-5-5-5-5-5-5-5-|-3-3-3-3-3-3-3-3-5-5-5-5-5-5-5-5-|
|-10-10-10-10-10-10-10-10-5-5-5-5-5-5-5-5-|-3-3-3-3-3-3-3-3-5-5-5-5-5-5-5-5-|

|---------------------------------|---------------------------------|
|---------------------------------|---------------------------------|
|---------------------------------|---------------------------------|
|-3-3-3-3-3-3-3-3-3-3-3-3-3-3-3-3-|-5-5-5-5-5-5-5-5-5-5-5-5-5-5-5-5-|
|-3-3-3-3-3-3-3-3-3-3-3-3-3-3-3-3-|-5-5-5-5-5-5-5-5-5-5-5-5-5-5-5-5-|
|-3-3-3-3-3-3-3-3-3-3-3-3-3-3-3-3-|-5-5-5-5-5-5-5-5-5-5-5-5-5-5-5-5-|
  P.M. --------------------------- (slowly release) - - - - - - - -

Chorus:

|-----------------------------------------|---------------------------------|
|-----------------------------------------|---------------------------------|
|-----------------------------------------|---------------------------------|
|-10-10-10-10-10-10-10-10-5-5-5-5-5-5-5-5-|-3-3-3-3-3-3-3-3-2-2-2-2-2-2-2-2-|
|-10-10-10-10-10-10-10-10-5-5-5-5-5-5-5-5-|-3-3-3-3-3-3-3-3-2-2-2-2-2-2-2-2-|
|-10-10-10-10-10-10-10-10-5-5-5-5-5-5-5-5-|-3-3-3-3-3-3-3-3-2-2-2-2-2-2-2-2-|

|---------------------------------|-------------------------------------------------|
|---------------------------------|-------------------------------------------------|
|---------------------------------|-------------------------------------------------|
|-3-3-3-3-3-3-3-3-5-5-5-5-5-5-5-5-|-10-10-10-10-10-10-10-10-10-10-10-10-10-10-10-10-|
|-3-3-3-3-3-3-3-3-5-5-5-5-5-5-5-5-|-10-10-10-10-10-10-10-10-10-10-10-10-10-10-10-10-|
|-3-3-3-3-3-3-3-3-5-5-5-5-5-5-5-5-|-10-10-10-10-10-10-10-10-10-10-10-10-10-10-10-10-|

Outro:

|---------------------------------|
|---------------------------------|
|---------------------------------|
|-7-------------------------------|
|-7-------------------------------|
|-7-------------------------------|
  Let it ring

Song sequence:
-Intro
-Solo
-Verse
-Chorus
-Solo
-Verse
-Chorus
-Solo (x2)
Tap to rate this tab
 
# A B C D E F G H I J K L M N O P Q R S T U V W X Y Z