Song name
# A B C D E F G H I J K L M N O P Q R S T U V W X Y Z

Misc Unsigned Bands - Silver Haven - Her tab

This song is played in standard tuning, and you will have to hear the song your self to 
when the palm mutes are in the verses. Visit myspace.com/silverhavenband

Verse:
|------------------------|
|------------------------|
|-------9----7----9------|
|--7----9----7----9------|
|--7----7-x3-5-x3-7------|
|--5-x3------------------|


Chorus

(same as verse, with no palm muting at all)

Bridge:

|--------------------------------------|
|--------------------------------------|
|--7-----------7-----9-----------------|
|--7-----7-----7-----9-------9---------|
|--5-x16-7-----5-x16-7-x7---9-9-7-9-7--|
|--------5-x16-------------------------|

outro/solo
|------------------------|
|--2-2-0-0-2-2-0-0-------|
|---2-2-2-2-2---2-2------|
|------------------------|
|------------------------|
|------------------------| do that about 4 times

BE SURE TO VISIT MYSPACE.COM/SILVERHAVENBAND
Tap to rate this tab
# A B C D E F G H I J K L M N O P Q R S T U V W X Y Z