Song name
# A B C D E F G H I J K L M N O P Q R S T U V W X Y Z

Misc Unsigned Bands - Andrew Kop - Where Hope Lies tab

Help us improve GuitareTab! Take a short survey!
Where Hope Lies
By Andrew Kop
April 9th, 2008


Intro
|---2----------0---------0----------------------------||
|-----3----------3----------3-------------------------||
|-------2----------------------0----------------------||
|-0---------3-----------------------------------------||
|--------------------3-----------------0-h2-0---------||
|---------------------------------3-------------------||
                                         h= hammer on

|---2----------0---------0----------------------------||
|-----3----------3----------3-------------------------||
|-------2----------------------0----------------------||
|-0---------3-------------------------------0---------||
|--------------------3-----------------0-h2-----------||
|---------------------------------3-------------------||


|-----------------------------------------------------||
|-----------------------------------------------------||
|--------0-----------0-----------0---------0----------||
|------0-----------0-----------0---------0------------||
|----------3-----------2-----------3---------2--------||
|--3------------3------------3---------3--------------||


|---2----------0---------0----------------------------||
|-----3----------3----------3-------------------------||
|-------2----------------------0----------------------||
|-0---------3-----------------------------------------||
|--------------------3-----------------0-h2-0---------||
|---------------------------------3-------------------||

|---2----------0---------0----------------------------||
|-----3----------3----------3-------------------------||
|-------2----------------------0----------------------||
|-0---------3-------------------------------0---------||
|--------------------3-----------------0-h2-----------||
|---------------------------------3-------------------||


|-----------------------------------------------------||
|----3----3---3---0-----3----3----3-----0-------------||
|----0----0---0---0-----0----0----0-----0-------------||
|----0----2---0---2-----0----2----0-----2-------------||
|----2----3---2---2-----2----3----2-----2-------------||
|----3--------3---0-----3---------3-----0-------------||

|--2----0------------------2----0---------------------||
|--3----3-----3---3--------3----3----3----3-----------||
|--2----2-----0---0--------2----2----0----0-----------||
|--0----3-----2---0--------0----3----2----0-----------||
|-------------3---2------------------3----2-----------||
|-----------------3-----------------------3-----------||

|-----------------------------------------------------||
|----3----3---3---0-----3----3----3-----0-------------||
|----0----0---0---0-----0----0----0-----0-------------||
|----0----2---0---2-----0----2----0-----2-------------||
|----2----3---2---2-----2----3----2-----2-------------||
|----3--------3---0-----3---------3-----0-------------||


|--2----0------------------2----0---------------------||
|--3----3-----3---3--------3----3----3----3-----------||
|--2----2-----0---0--------2----2----0----0-----------||
|--0----3-----2---0--------0----3----2----0-----------||
|-------------3---2------------------3----2-----------||
|-----------------3-----------------------3-----------||


|--2----0------------------2----0---------------------||
|--3----3-----3---3--------3----3----3----0-----------||
|--2----2-----0---0--------2----2----0----1-----------||
|--0----3-----2---0--------0----3----0----2-----------||
|-------------3---2------------------2----2-----------||
|-----------------3------------------3----0-----------||


|------------0------------------------0---------------||
|--3----3-------3-----3------3----3------3-----3------||
|----4----4--------4------4-----4-----------4---------||
|-----------------------------------------------------||
|-----------------------------------------------------||
|-----------------------------------------------------||


|-------------0---------------------0-----------------||
|-----3----3-----3~-----3------3-------3-----3--------||
|--2----2-------------2-----2----2--------2-----------||
|-----------------------------------------------------||
|-----------------------------------------------------||
|-----------------------------------------------------||

|---------------0------------------------0------------||
|-----3-----3-------3----3-----3-----3-------3--------||
|--4-----4------------4-----4-----4--------------4--4-||
|-----------------------------------------------------||
|-----------------------------------------------------||
|-----------------------------------------------------||

|--------------0------------------------0---0---------||
|----3-----3------3-----3-----3-----3-----------------||
|-2-----2------------2-----2-----2-------------2---2--||
|-----------------------------------------------------||
|-----------------------------------------------------||
|-----------------------------------------------------||

|---------------0------------------------0------------||
|-----3-----3-------3----3-----3-----3-------3--------||
|--4-----4------------4-----4-----4--------------4--4-||
|-----------------------------------------------------||
|-----------------------------------------------------||


|-------------0---------------------0-----------------||
|-----3----3-----3~-----3------3-------3-----3--------||
|--2----2-------------2-----2----2--------2-----------||
|-----------------------------------------------------||
|-----------------------------------------------------||


|-------------0---------------------0-----------------||
|-----2----2-----2~-----2------2-------2-----2--------||
|--2----2-------------2-----2----2--------2-----------||
|-----------------------------------------------------||
|-----------------------------------------------------||
|-----------------------------------------------------||


|----0------0----3---0-----0~------0------0---3--0----||
|-1-----1---------------1------1------1---------------||
|---------------------------------------------------0-||
|-----------------------------------------------------||
|-----------------------------------------------------||
|-----------------------------------------------------||


|---3---3--3----3----3---3----3---3----3--------------||
|---1---1--1----1----1---1----1---1----X--------------||
|---0---0--0----0----0---0----0---0----0--------------||
|-----------------------------0---0----0---0~---------||
|--------------------------------------2---2~---------||
|--------------------------------------3---3~---------||

-not exact amount, listen for it
|----------------------------3--3------333333333333333||
|---------------------3------3--3------333333333333333||
|----------------00---0-----------------00000000000000||
|----------------00---0-----------------00000000000000||
|------------222222---2-----------------22222222222222||
|--333333333333333333333333333333333333333333333333333||

                                                                                         
                              triplet
|----3~---3~--3~--3~----3~---3~---3~----3~-3---3------||
|----3~---3~--3~--0~----3~---3~---3~----0~-0---0------||
|----0----0---0---0-----0----0----0-----0--0---0------||
|----0----2---0---2-----0----2----0-----2--2---2------||
|----2----3---2---2-----2----3----2-----2--2---2------||
|----3--------3---0-----3---------3-----0--0---0--0---||

|----3~---3~--3~--3~----3~---3~---3~----3-------------||
|----3~---3~--3~--0~----3~---3~---3~----0-------------||
|----0----0---0---0-----0----0----0-----0-------------||
|----0----2---0---2-----0----2----0-----2-------------||
|----2----3---2---2-----2----3----2-----2-------------||
|----3--------3---0-----3---------3-----0-------------||


|--2----0------------------2----0---------------------||
|--3----3-----3---3--------3----3----3----3-----------||
|--2----2-----0---0--------2----2----0----0-----------||
|--0----3-----2---0--------0----3----2----0-----------||
|-------------3---2------------------3----2-----------||
|-----------------3-----------------------3-----------||

|-----------------------------------------------------||
|----3----3---3---0-----3----3----3-----0-------------||
|----0----0---0---0-----0----0----0-----0-------------||
|----0----2---0---2-----0----2----0-----2-------------||
|----2----3---2---2-----2----3----2-----2-------------||
|----3--------3---0-----3---------3-----0-------------||


|-----------------------------------------------------||
|-----------------------------------------------------||
|--------0-----------0-----------0---------0----------||
|------0-----------0-----------0---------0------------||
|----------3-----------2-----------3---------2--------||
|--3------------3------------3---------3--------------||


|---2----------0---------0----------------------------||
|-----3----------3----------3-------------------------||
|-------2----------------------0----------------------||
|-0---------3-----------------------------------------||
|--------------------3--------------------------------||
|---------------------------------3-------------------||


|---2----------0---------0----------------------------||
|-----3----------3----------3-------------------------||
|-------2----------------------0----------------------||
|-0---------3-----------------------------------------||
|--------------------3--------------------------------||
|---------------------------------3-------------------||

*Strum chords slowly from bottom string up
|--2----0------------------2----0---------------------||
|--3----3-----3---3--------3----3----3----3-----------||
|--2----2-----0---0--------2----2----0----0-----------||
|--0----3-----2---0--------0----3----2----0-----------||
|-------------3---2--0-2-0-----------3----2-----------||
|-----------------3-----------------------3-----------||


strum top down
|--2----0------------------2----0-------------------3------3------||
|--3----3-----3---3--------3----3----0----3---------3------3------||
|--2----2-----0---0--------2----2----1----0------0---------0------||
|--0----3-----2---0--------0----3----2----2-----0----------0------||
|-------------3---2------------------2----3----2-----------2------||
|-----------------3---------------------------3------------3------||
Related for Andrew Kop - Where Hope Lies tab