Song name
# A B C D E F G H I J K L M N O P Q R S T U V W X Y Z

Misc Unsigned Bands - Mhz - Somebody Said To Me tab

MHZ - Somebody Said To Me
Tabbed By Zac Cause (Guitarist of MHZ)
Tuning: EADGBE

Comments Welcome,
Cant Really Help Me Fix It, Its my song so yeah..
Good luck learning it, just throwing it out so people can
play our stuff, Recording Soon Woot!

SocialPerception@Hotmail.com

Legend

H - Hammer On
P - Pull Off
B - Bend
~ - Vibrato
x - Mute
P - Palm Mute
+ - Pinch Harmonic
/ - Slide
T - Tap


	Intro
E|-----------------------------|
B|-----------------------------|
G|-9-9--7-7-7------------------| x4
D|-9-9--7-7-7--7--7-7--7-7-7-7-|
A|-7-7--5-5-5--7--7-7--7-7-7-7-|
E|-------------5--5-5--5-5-5-5-|

	
	Verse
E|----------------------------------|
B|----------------------------------|
G|-9-9--7-7-7-----------------------| x8 
D|-9-9--7-7-7--7--7-7---------------| Rythmn
A|-7-7--5-5-5--7--7-7-------5h7p5---|
E|-------------5--5-5-5h7p5-------7-|

	
E|------------------------------------------|
B|------------------------------------------|
G|----------------------------14p12----12---| ----
D|-12-14-12-14-12-14-12-14-12-------14------|     |
A|------------------------------------------|     |
E|------------------------------------------|     |
       ~     ~     ~     ~    +                   |
                                                  |---- x 4 Lead
E|------------------------------------------|     |
B|------------------------------------------|     |
G|----------------------------12h14p12----12|     |
D|-12-14-12-14-12-14-12-14-12----------14---| ----|
A|------------------------------------------|
E|------------------------------------------|
       ~     ~     ~     ~ 


	Chorus
E|-----------------|--------------------|
A|-----------------|--------------------|
D|-----------------|--------------------| x8
G|-----7-9-----7/9-|-----7-9-----9--9-9-| Rythmn 
B|-7-9-5-7-7-9-5/7-|-7-9-5-7-7-9-7--7-7-| Lead only does the first part.
E|-5-7-----5-7-----|-5-7-----5-7--------|


	Verse
E|----------------------------------|
B|----------------------------------|
G|-9-9--7-7-7-----------------------| x8 
D|-9-9--7-7-7--7--7-7---------------| Rythmn
A|-7-7--5-5-5--7--7-7-------5h7p5---|
E|-------------5--5-5-5h7p5-------7-|

	
E|------------------------------------------|
B|------------------------------------------|
G|----------------------------14p12----12---| ----
D|-12-14-12-14-12-14-12-14-12-------14------|     |
A|------------------------------------------|     |
E|------------------------------------------|     |
       ~     ~     ~     ~    +                   |
                                                  |---- x 4 Lead
E|------------------------------------------|     |
B|------------------------------------------|     |
G|----------------------------12h14p12----12|     |
D|-12-14-12-14-12-14-12-14-12----------14---| ----|
A|------------------------------------------|
E|------------------------------------------|
       ~     ~     ~     ~ 


	Chorus
E|-----------------|--------------------|
B|-----------------|--------------------|
G|-----------------|--------------------| x8
D|-----7-9-----7/9-|-----7-9-----9--9-9-| Rythmn - Speed up into Solo.
A|-7-9-5-7-7-9-5/7-|-7-9-5-7-7-9-7--7-7-| Lead only does the first part.
E|-5-7-----5-7-----|-5-7-----5-7--------|


	Solo
E|12----15p12----15p12----17p12----15b-12-------|
B|15b~~-------15------15--------15--------15-12-|
G|----------------------------------------------|
D|----------------------------------------------|
A|----------------------------------------------|
E|----------------------------------------------|

E|--------------------------------------------------|
B|----12----------------------------15p12-----15p12-|
G|-14----14b-12-----------------14b--------14-------|
D|--------------14-12-------------------------------|
A|--------------------14-13-12----------------------|
E|--------------------------------------------------|
                       P  P  P 

E|-------------------------------------------------------|
B|-------------------------------------------------------|
G|-12h14-21-12h14-21-12h14-21-12h14-21-12h14-21-12h14-21-|
D|-------------------------------------------------------|
A|-------------------------------------------------------|
E|-------------------------------------------------------|
          T        T        T        T        T        T

E|-------------------------------------------------------|
B|-------------------------------------------------------|
G|14b(2)-14b-14b-14b-14b-14b-14b-14b-14b-14b-14b-14b-14b-| Slowly Release Bend
D|-------------------------------------------------------|
A|-------------------------------------------------------|
E|-------------------------------------------------------|

	Verse
E|----------------------------------|
B|----------------------------------|
G|-9-9--7-7-7-----------------------| x8 
D|-9-9--7-7-7--7--7-7---------------| Rythmn
A|-7-7--5-5-5--7--7-7-------5h7p5---|
E|-------------5--5-5-5h7p5-------7-|

	
E|------------------------------------------|
B|------------------------------------------|
G|----------------------------14p12----12---| ----
D|-12-14-12-14-12-14-12-14-12-------14------|     |
A|------------------------------------------|     |
E|------------------------------------------|     |
       ~     ~     ~     ~    +                   |
                                                  |---- x 4 Lead
E|------------------------------------------|     |
B|------------------------------------------|     |
G|----------------------------12h14p12----12|     |
D|-12-14-12-14-12-14-12-14-12----------14---| ----|
A|------------------------------------------|
E|------------------------------------------|
       ~     ~     ~     ~ 


	Chorus
E|-----------------|--------------------|
B|-----------------|--------------------|
G|-----------------|--------------------| x8
D|-----7-9-----7/9-|-----7-9-----9--9-9-| Rythmn - Slow down for finish
A|-7-9-5-7-7-9-5/7-|-7-9-5-7-7-9-7--7-7-| Lead only does the first part.
E|-5-7-----5-7-----|-5-7-----5-7--------|
Fade out

©MHZ 2009
Tap to rate this tab
# A B C D E F G H I J K L M N O P Q R S T U V W X Y Z