Song name
# A B C D E F G H I J K L M N O P Q R S T U V W X Y Z

Misc Unsigned Bands - Onision - Dance Legion Charlie tab

Help us improve GuitareTab! Take a short survey!
If you don't know the song, check it out first at http://www.youtube.com/watch?v=t3yJ6fB97ek

This just plays throughout the whole thing.


|-12--------------------------|
|-----13-12----10h12-13-12----|
|-----------------------------|
|-----------------------------|
|-----------------------------|
|-----------------------------|

|-12-------------------------------7-8---7-8-10/15-13-12---|
|-----13-12----10h12-13-12----10---------------------------|
|----------------------------------------------------------|
|----------------------------------------------------------|
|----------------------------------------------------------|
|----------------------------------------------------------|


NOTE: I am not Onision and I am not stealing his music, just tabbing it to be enjoyed.
NOTE(again): I wouldn't bother looking up his other stuff, in my opinion this is 
the only good video.
Related for Onision - Dance Legion Charlie tab