Song name
# A B C D E F G H I J K L M N O P Q R S T U V W X Y Z

Misc Unsigned Bands - Beneath The Atlantic - Why Should I Care tab

                           this tabs 100% correct
                           its in drop D tuning
                                   enjoy


play 3 times
|----------------------------------------------------------|
|----------------------------------------------------------|
|----------------------------------------------------------|
|----------------------------------------------------------|
|--000000--0--0--0--000000--0--0--0------------------------|
|--000000--0--0--0--000000--0--0--0------------------------|

play 4 times
|----------------------------------------------------------|
|----------------------------------------------------------|
|----------------------------------------------------------|
|----------------------------------------------------------|
|--111111--1--1--1--111111--1--1--1------------------------|
|--111111--1--1--1--111111--1--1--1------------------------|

play once
|----------------------------------------------------------|
|----------------------------------------------------------|
|----------------------------------------------------------|
|----------------------------------------------------------|
|--000000--0--0--0--000000--0--0--0------------------------|
|--000000--0--0--0--000000--0--0--0------------------------|

play 2 times
|----------------------------------------------------------|
|----------------------------------------------------------|
|----------------------------------------------------------|
|----------------------------------------------------------|
|--111111--1--1--1--111111--1--1--1------------------------|
|--111111--1--1--1--111111--1--1--1------------------------|


PLAY 4 TIMES
|----------------------------------------------------------|
|------------141414----------------------------------------|
|------------171717----------------------------------------|
|----------------------------------------------------------|
|--000000--------------------------------------------------|
|--000000--------------------------------------------------|

PLAY 4 TIMES
|----------------------------------------------------------|
|----------------14~-------14~-----------------------------|
|-----------17~-------17~----------------------------------|
|----------------------------------------------------------|
|--000000--------------------------------------------------|
|--000000--------------------------------------------------|

play twice
|----------------------------------------------------------|
|----------------------------------------------------------|
|----------------------------------------------------------|
|----------------------------------------------------------|
|--000000--0--0--0--000000--0--0--0------------------------|
|--000000--0--0--0--000000--0--0--0------------------------|
                                         
play 2 times
|----------------------------------------------------------|
|----------------------------------------------------------|
|----------------------------------------------------------|
|----------------------------------------------------------|
|--111111--1--1--1--111111--1--1--1------------------------|
|--111111--1--1--1--111111--1--1--1------------------------|

play twice
|----------------------------------------------------------|
|----------------------------------------------------------|
|----------------------------------------------------------|
|----------------------------------------------------------|
|--000000--0--0--0--000000--0--0--0------------------------|
|--000000--0--0--0--000000--0--0--0------------------------|

                          
play 2 times
|----------------------------------------------------------|
|----------------------------------------------------------|
|----------------------------------------------------------|
|----------------------------------------------------------|
|--111111--1--1--1--111111--1--1--1------------------------|
|--111111--1--1--1--111111--1--1--1------------------------|

                        THE END HAHA NOT A HARD SONG

Tap to rate this tab
 
# A B C D E F G H I J K L M N O P Q R S T U V W X Y Z