Song name
# A B C D E F G H I J K L M N O P Q R S T U V W X Y Z

Misc Unsigned Bands - An Endless Sporadic - The Adventures Of Jabubu tab

-------------------------------------------------------------------------------
			     the adventures of jabubu - AES
-------------------------------------------------------------------------------
Tabbed by: thetroy
Tuning: drop d - this tab isnt drop d but the song for sure is

intro
e|-21--17-14-10--12t14-------------------------------------------------------|
B|---------------------------------------------------------------------------|
G|---------------------------------------------------------------------------|
D|---------------------------------------------------------------------------|
A|---------------------------------------------------------------------------|
E|---------------------------------------------------------------------------|

verse
e|---------------------------------------------------------------------------|
B|-----7-5-------------------------------------------------------------------|
G|-8-6-------8-6-4-2-4~------------------------------------------------------|
D|---------------------------------------------------------------------------|
A|---------------------------------------------------------------------------|
E|---------------------------------------------------------------------------|

verse pt 2  (this is all i know)
e|---------------------------------------------------------------------------|
B|---------10--10-13-12------------------------------------------------------|
G|-7--7h10--------------12-9-------------------------------------------------|
D|---------------------------10-9--------------------------------------------|
A|---------------------------------------------------------------------------|
E|---------------------------------------------------------------------------|

chorus (all i know)
e|---------------------------------------------------------------------------|
B|---------------------------------------------------------------------------|
G|-9-99----7-7-7---55-55---4-4-4---------------------------------------------|
D|------10-------9-------7-------5-------------------------------------------|
A|---------------------------------------------------------------------------|
E|---------------------------------------------------------------------------|


there thats all i know. come on. its AES. i cant figure them out


| /  slide up
| \  slide down
| h  hammer-on
| p  pull-off
| ~  vibrato
| +  harmonic
| x  Mute note
===============================================================================
Tap to rate this tab
 
# A B C D E F G H I J K L M N O P Q R S T U V W X Y Z