Song name
# A B C D E F G H I J K L M N O P Q R S T U V W X Y Z

Misc Unsigned Bands - The Blacksheeps - Oro Jaska Beana tab

e|------------------|
B|------------------|
G|----9-9--7-7-7----|
D|----9-9--7-7-7----|Oro jaska beana!
A|----7-7--5-5-5----|
E|------------------|
                   
e|------------------|
B|------------------|
G|----9-9--7-7-7----|
D|----9-9--7-7-7----|Oro jaska beana!
A|----7-7--5-5-5----|
E|------------------|

e|------------------|
B|------------------|
G|----9-9--7-7-7----|
D|----9-9--7-7-7----|Oro jaska beana!
A|----7-7--5-5-5----|
E|------------------|

e|---------------------------------------|
B|---------------------------------------|
G|---------------------------------------|
D|----7-7--9-9-9--7-7--9-9-9--5-5-5-5----|Oro jaska beana!
A|----7-7--9-9-9--7-7--9-9-9--5-5-5-5----|
E|----5-5--7-7-7--5-5--7-7-7--3-3-3-3----|


That was all i know, I think its right.
Tap to rate this tab
# A B C D E F G H I J K L M N O P Q R S T U V W X Y Z