Song name
# A B C D E F G H I J K L M N O P Q R S T U V W X Y Z

Misc Unsigned Bands - Lostalone - The Star tab

hey! this is my first tab and its not 100% correct! if you have found some 
mistakes, mail me please! 
this is an absolut incridible song...

|-12---------------------12----------------------12------------------12----|
|----14--------------14------14-----14----9---9------14----------14------14|
|--------13------13--------------13---------8-----------13----13-----------|
|------------13--------------------------------------------13--------------|
|--------------------------------------------------------------------------|
|--------------------------------------------------------------------------|

|-------------12--------------14----------------14-------------------------|
|----------14----14--------------16------16--------------------------------|
|-13----13----------13----13-----------------------------------------------|
|----13----------------13------------15------------------------------------|
|--------------------------------------------------------------------------|
|--------------------------------------------------------------------------|
Tap to rate this tab
# A B C D E F G H I J K L M N O P Q R S T U V W X Y Z