Song name
# A B C D E F G H I J K L M N O P Q R S T U V W X Y Z

Misc Unsigned Bands - Arsoniste - Within The Broken Path tab

tabbed by pearlyannchan @ www.myspace.com/arsoniste(song available here!)

Intro GUitar 1:
e |----------------------------------------------------------------|
b |----------------------------------------------------------------|
g |--7-7-7---------------------------------------------------------|
d |--7-7-7--8-8-8---5-5-5--0-0-0-----------------------------------|
a |--5-5-5--8-8-8---5-5-5--0-0-0-----------------------------------|
D |---------8-8-8---5-5-5--0-0-0-----------------------------------|

Intro Guitar 2 lead:
e |------(2x)------|--------(2x)-----|---------------|--------------------|
b |----------------|-----------------|---------------|--------------------|
g |----------------|-----------------|---------------|--------------------|
d |-------5-7-8-8-7|----------8-7-7-8|-------5-7-88-7|------5-7-8-8-7-----|
a |-5-7-8----------|---7-8-10--------|---7-8---------|-5-7-8--------------|
D |----------------|-8---------------|-5-------------|--------------------|

Verse Chords

e |------------------------------|--------------------|
b |------------------------------|--------------------|
g |------------------------------|--------------------|
d |-0-0-0---8-8-8--5-5-5--0-0-0--|-2------------------|
a |-0-0-0---8-8-8--5-5-5--0-0-0--|-2------------------|
D |-0-0-0---8-8-8--5-5-5--0-0-0--|-2------------------|


Prechorus Chords
e |-----------------------------------------------|
b |-----------------------------------------------|
g |-----------------------------------------------|
d |-0-0-0-7--0-0-0-8-5--0-0-0-7--0-0-0-8-5-3-5----|
a |-0-0-0-7--0-0-0-8-5--0-0-0-7--0-0-0-8-5-3-5----|
D |-0-0-0-7--0-0-0-8-5--0-0-0-7--0-0-0-8-5-3-5----|


Chorus:
e |-----------------------------------------------------------------|
b |-----------------------------------------------------------------|
g |-----------------------------------------------------------------|
d |--0-0-8-8-10-10--0-0---------------------------------------------|
a |--0-0-8-8-10-10--0-0---------------------------------------------|
D |--0-0-8-8-10-10--0-0---------------------------------------------|

2nd verse

Dm, F, G

Outro - lead
e |------------------|-----------------------------|
b |------------------|-----------------------------|
g |------------10-12-|-----------------------------|
d |-8-12-10--8-10-12-|-8-12-10--8-5-7---0----------|
a |-8-12-10--8-8--10-|-8-12-10--8-5-7---0----------|
D |-8-12-10--8-------|-8-12-10--8-5-7---0----------|
Tap to rate this tab
# A B C D E F G H I J K L M N O P Q R S T U V W X Y Z