Song name
# A B C D E F G H I J K L M N O P Q R S T U V W X Y Z

Misc Unsigned Bands - Alex Reich - First Song tab

e----1----1------1-1-1-1------------------------------------|
-----3----2------3-3-3-3-----3----3------3-3-3-3------------|
-----2----3------2-2-2-2-----3----3------3-3-3-3------------|
D----0----0------0-0-0-0-----1----1------1-1-1-1------------|
A-----------------------------------------------------------|
E-----------------------------------------------------------|

e----3----3------3-3-3-3-----1----1------1-1-1-1------------|
-----3----3------3-3-3-3-----0----0------0-0-0-0------------|
-----0----0------0-0-0-0-----2----2------2-2-2-2------------|
D----0----0------0-0-0-0-----3----3------3-3-3-3------------|
A-----------------------------------------------------------|
E-----------------------------------------------------------|

Repeat all of the above 4X
(On the 4th time strum the last chord slowly and only once)

(Solo/Interlude)
e--3/5-5-5/7-7-9-7-5-3--------------------------------3-5-6-|
-----------------------3-5-------------------------3-5------|
--------------------------3-5-----------------3-5-6---------|
D----------------------------3-5-----------3-5--------------|
A-------------------------------3-5---3-5-6-----------------|
E-----------------------------------------------------------|

e-----------------5-7-7-----------|
---------------5-7----------------|
----------5-7-8-------------------|
D------5-7------------------------|
A-5-7-8---------------------------|
E---------------------------------|

e--------------------7-9-10-------|
------------------7-9-------------|
------------7-9-10----------------|
D--------7-9----------------------|
A--7-9-10-------------------------|
E---------------------------------|

e------------------------9-11-12b=13---|
---------------------9-11--------------|
--------------9-11-12------------------|
D---------9-11-------------------------|
A--9-11-12-----------------------------|
E--------------------------------------|

e--12t--9t-11t-12t-11t-9t-9b=10-9v--------------------------------------|
------------------------------------------------------------------5-3v--|
--------------------------------------9\7-7\5-3v--------3-5-3-5-6-------|
D---------------------------------------------------3-5-----------------|
A----------------------------------------------3-5-6--------------------|
E-----------------------------------------------------------------------|

Key:
|b=|- bend note to sound like another
|/|- slide up
|\|- slide down
|t|- tremolo pick
|v|- vibrato
Tap to rate this tab
# A B C D E F G H I J K L M N O P Q R S T U V W X Y Z