Song name
# A B C D E F G H I J K L M N O P Q R S T U V W X Y Z

Misc Unsigned Bands - Srap - On Tour tab

On Tour By S.R.A.P.

this is a great song and it's easy to play so enjoy!

                INTRO/VERSE(Play about four times)
e|--------------------------------------------------------------------|
b|--------------------------------------------------------------------|
g|----------------------------------5--5------------------------------|
D|--------7-7-7-/-5-/7-7-7/-5-/7-7--3--3---7-7-7-/-5-/7-7-7--7--------|
A|--------5-5-5-/-3-/5-5-5/-3-/5-5---------5-5-5-/-3-/5-5-5--5--------|
E|--------------------------------------------------------------3-4-5-|


PRE-CHORUS(play two times)

e|-------------------------------------------------------------------|
b|-------------------------------------------------------------------|
g|-------------------------------------------------------------------|
D|-----12-12-12-12-12-12-12-11-11-11-11-11-11-11-10-10-10-10-10-10-9-|
A|-----10-10-10-10-10-10-10-9--9--9--9--9--9--9--8--8--8--8--8--8--7-|
E|-------------------------------------------------------------------|

CHORUS:


e|---------------------------------|
b|---------------------------------|
g|---------------------------------|
D|---7-7-7/5---5-5-5--5-5-5--5-5---|
A|---5-5-5/3---3-3-3--3-3-3--3-3---|
E|---------------------------------|
(Repeat about 4 times and then go back to the verse.)


that's about it. I still don't know the outro but it's simalar to the pre-chorus. oh, 
jesse does a pick slide 4 times in the song but i'm not sure where... oh well!
Tap to rate this tab
 
# A B C D E F G H I J K L M N O P Q R S T U V W X Y Z