Guitaretab - guitar tabs
Song name
# A B C D E F G H I J K L M N O P Q R S T U V W X Y Z

Misc Unsigned Bands - Sythe - Drunken Leprechauns tab

Drunken Leprechauns
By Sythe. A recording of this song will be on my UG Bands profile under Sythe
Intro/ Chorus
----------------------------------|
----------------------------------|
----------------------------------|
-9--------9------9----------------|
-7--7-7-7-7--7-7-7----77-66-55----|
-0--0-0-0-0--0-0-0----00-00-00----|
x8 for intro while building up volume, x4 for chorus

Verse
-------------------------------------------------|
-------------------------------------------------|
-9-9-9-9-9-x-9-x-4-4-x-x-x-x-5-5-x-x-x-x-7-7-x-x-|
-9-9-9-9-9-x-9-x-4-4-x-x-x-x-5-5-x-x-x-x-7-7-x-x-|
-7-7-7-7-7-x-7-x-2-2-x-x-x-x-3-3-x-x-x-x-5-5-x-x-|
-------------------------------------------------|
x6

Then...
Chorus
Verse
Chrous
[ Tab from: http://www.guitaretab.com/m/misc-unsigned-bands/177084.html ]
Bridge
----------------------------------------|
----------------------------------------|
-9----7----5----7----9----7----5--7--9--|
-9----7----5----7----9----7----5--7--9--|
-7----5----3----5----7----5----3--5--7--|
----------------------------------------|
x1

Then...
Chorus, but only play x3

Outro Guitar 1                               pick slide
-------------------------------------------------------------|
--------------------10b--------------------------------------|
-------------------------9b-7tr9-----------------------9-9-9-|
-9-------9-----12----------------7tr9-9p7/--2----x/----9-9-9-|
-7-7-7-7-7-7-7-10---------------------------2----x/----7-7-7-|
-0-0-0-0-0-0-0-0----------------------------0----x/----------|
Guitar 2                                     pick slide
--------------------12b---------------------------------------|
------------------------10b-8tr10-----------------------------|
----------------------------------7tr9-9p7/-------------9-9-9-|
-9-------9-----12----------------------------2----x/----9-9-9-|
-7-7-7-7-7-7-7-10----------------------------2----x/----7-7-7-|
-0-0-0-0-0-0-0-0-----------------------------0----x/----------|
Related for Sythe - Drunken Leprechauns tab
Advertisement will be closed in 10 seconds