Song name
# A B C D E F G H I J K L M N O P Q R S T U V W X Y Z

Misc Unsigned Bands - An End At Peace - A Road That Leads You Nowhere tab

This is lead guitar only


chorus
|------------------------------------------------------------------|
|------------------------------------------------------------------|
|------------------------------------------------------------------|
|------------------------------------------------------------------|
|-5-0--7-0--9-0--9h10h9--------------------------------------------|
|------------------------------------------------------------------|x10

chorusx2
|------------------------------------------------------------------|
|------------------------------------------------------------------|
|------------------------------------------------------------------|
|-222-4~--222-4~--222-453---111-4~--111-4~--111-453----------------|
|------------------------------------------------------------------|
|------------------------------------------------------------------|x4

(dont pause)

|------------------------------------------------------------------|
|------------------------------------------------------------------|
|------------------------------------------------------------------|
|------------------------------------------------------------------|
|-5-0--7-0--9-0--9h10h9--------------------------------------------|
|------------------------------------------------------------------|x10


|------------------------------------------------------------------|
|------------------------------------------------------------------|
|------------------------------------------------------------------|
|--222-4~--222-4~--222-453--111-4~--111-4~--111-453----------------|
|------------------------------------------------------------------|
|------------------------------------------------------------------|x4


(repeat chorus x10)

(gallop picking)
|------------------------------------------------------------------|
|------------------------------------------------------------------|
|------------------------------------------------------------------|
|------------------------------------------------------------------|
|-444444-666666-222222-444444--------------------------------------|
|-222222-444444-222222-444444--------------------------------------|x4

(dont pause)(until end of song)
|------------------------------------------------------------------|
|------------------------------------------------------------------|
|------------------------------------------------------------------|
|------------------------------------------------------------------|
|--5-0--7-0--9-0--9h10h9p------------------------------------------|
|------------------------------------------------------------------|x10



Tap to rate this tab
# A B C D E F G H I J K L M N O P Q R S T U V W X Y Z