Guitaretab - guitar tabs
Song name
# A B C D E F G H I J K L M N O P Q R S T U V W X Y Z

Misc Unsigned Bands - Cody Baron - Retribution tab

Hi I am Cody and this is the very first song that I have written so far.
Please excuse the scale being upside down lol, i just realised that 3 quarters of the
i was done haha. But I can read it, so u probably can.

Http://www.youtube.com/user/metalhead2221    is my webpage so far...like I say...so far....

Well I hope you try and learn my song!!
Thank you, Cody

E----------------------------------------------------------------------------|
A----------------------------------------------------------------------------|
D----------------------------------------------------------------------------|
G---0--------------------0---------------------------------------------------|
B---3-3-3-3-3-3-3-3------3-3-3-3-3-3-3-3-------------------------------------|
E---2-2-2-2-2-2-2-2------3-3-3-3-3-3-3-3-------------------------------------|

                                                                                         
          X2

E-----------------------------------------------------------------------------|
A-----------------------------------------------------------------------------|
D-----------------------------------------------------------------------------|
G---0--------------------0----------------------------------------------------|
B---0-0-0-0-0-0-0-0------2-2-2-2-2-3-2-3--------------------------------------|
E---2-2-2-2-2-2-2-2------0-0-0-0-0-0-0-0---Let Ring---------------------------|

                                                       Fast with Energy
Chorus
                                         E Minor chord
E---0---0--0000000-----0-------------|
A---2---2--2222222-----2-------------|
D---2---2--2222222-----2-------------|
G------------------------------------|
B------------------------------------|
E------------------------------------|


                                        C chord
E---0---0--0--0-0-0-------------|
A---3---3--3--3-3-3-------------|
D---2---2--2--2-2-2-------------|
G---0---0--0--0-0-0-------------|
B---1---1--1--3-1-0-------------|
E---0---0--0--0-0-0-------------|


                                        G chord
E---3-3--3---33333333-----------|
A---2-2--2---22222222-----------|
D---0-0--0---00000000-----------|
G--------0---00000000-----------|
B--------0---00000000-----------|
E--------3---33333333-----------|


                                        2 note D chord
E------------------------|
A------------------------|
D------------------------|
G---2--2--2----2---------|
B---3--3--3----3---------|
E------------------------|


                                          A chord
E-----------------------|
A-----------------------|
D---33333333------------|
G---33333333------------|
B---33333333------------|
E-----------------------|
                                                                               X2
 (from E minor to A)

                                                  Medium pace, kind of sadů
E---6-6-6-6--6-6-6-6------|
A---6-6-6-6--6-6-6-6------|
D---8-8-8-8--8-8-8-8------|
G---6-6-6-6--6-6-6-6------|
B---7-7-7-7--6-6-6-6------|
E---6-6-6-6--6-6-6-6------|         X2

E---4-4-4-4--4-4-4-4------|
A---4-4-4-4--4-4-4-4------|
D---6-6-6-6--6-6-6-6------|
G---4-4-4-4--4-4-4-4------|
B---5-5-5-5--4-4-4-4------|
E---4-4-4-4--4-4-4-4------|         X2

E---2----2----2----2--------|
A---2----2----2----2--------|
D---4----4----4----4--------|
G---2----2----2----2--------|
B---3----3----2----2--------|
E---2----2----2----2--------|        X2

[ Tab from: http://www.guitaretab.com/m/misc-unsigned-bands/177541.html ]
                                            Quietly and Semi-Slow
E--------------------------------------------------------|
A--------------------------------------------------------|
D---9-----------9-----------9-----------9----------------|
G-----8-------8---8-------8---8-------8---8--------------|
B-------7---7-------7---7-------7---7-------7------------|
E---------0-----------0-----------0-----------0----------|


E-------------------------------------------------------|
A-------------------------------------------------------|
D---7-----------7-----------7-----------7---------------|
G---- 6-------6---6-------6---6-------6---6-------------|
B------ 5---5-------5---5-------5---5-------5-----------|
E---------7-----------7-----------7-----------7---------|


E-----------------------------------------------------------------|
A-----------------------------------------------------------------|
D---5-----------5------------5-----------5------------------------|
G-----4-------4---4--------4---4-------4---4----------------------|
B-------3---3--------3---3-------3---3-------3--------------------|
E---------3------------3-----------3-----------3------------------|


E---------------------------------------------------------------|
A---------------------------------------------------------------|
D---3-----------3-----------3-----------3-----------------------|
G-----2-------2---2-------2---2-------2---2---------------------|
B-------1---1-------1---1-------1---1-------1-------------------|
E---------1-----------1-----------1-----------0----let-ring-----|


E-------------------------|
A---------0----let-ring---|
D-------------------------|
G-------------------------|
B-------------------------|
E-------------------------|

Chorus
                                         E Minor chord
E---0---0--0000000-----0-------------|
A---2---2--2222222-----2-------------|
D---2---2--2222222-----2-------------|
G------------------------------------|
B------------------------------------|
E------------------------------------|


                                        C chord
E---0---0--0--0-0-0-------------|
A---3---3--3--3-3-3-------------|
D---2---2--2--2-2-2-------------|
G---0---0--0--0-0-0-------------|
B---1---1--1--3-1-0-------------|
E---0---0--0--0-0-0-------------|


                                        G chord
E---3-3--3---33333333-----------|
A---2-2--2---22222222-----------|
D---0-0--0---00000000-----------|
G--------0---00000000-----------|
B--------0---00000000-----------|
E--------3---33333333-----------|


                                        2 note D chord
E------------------------|
A------------------------|
D------------------------|
G---2--2--2----2---------|
B---3--3--3----3---------|
E------------------------|


                                          A chord
E-----------------------------|
A-----------------------------|
D---33333333------------------|
G---33333333------------------|
B---33333333------------------|
E-----------------------------|      X2 (from E minor to A)

E---0-------------------------------------------------------0----|
A------2--------------------quick-upstoke-and-quick-mute->--2----|
D---------2-------------------------------------------------2----|
G------------0----------------------------------------------0----|
B---------------0-------------------------------------------0----|
E------------------0--let-ring------------------------------0----|

Quarter notes between those single notes
Related for Cody Baron - Retribution tab