Song name
# A B C D E F G H I J K L M N O P Q R S T U V W X Y Z

Misc Unsigned Bands - The Boondock Saints - Holy Fool tab

I included a version in standard tuning which sounds alright as well as a version in 
Db which makes it sound a lot cooler.

Tuning: Standard -OR- Drop Db

Drop Db

Intro:

   1 e & a 2 e & a 3 e & a 4 e & a 1 e & a 2 e & a 3 e & a 4 e & a
eb|-------------------------------|--------------------------------|
Bb|-------------------------------|--------------------------------|
Gb|-------------------------------|--------------------------------|
Db|------------------x-----3------|------------------------3-------|
Ab|3h5-5-5-8---5-----x-3h5---5-3h5|3h5-5-5-8---5-------3h5-------5-|
Db|0-------0---0------------------|0-------0---0-------------------|
   pm~~~~~~~~~~~~~~~~              pm~~~~~~~~~~~~~~~~~~

   1 e & a 2 e & a 3 e & a 4 e & a 1 e & a 2 e & a 3 e & a 4 e & a
eb|-------------------------------|--------------------------------|
Bb|-------------------------------|--------------------------------|
Gb|-------------------------------|--------------------------------|
Db|------------------x-----3------|----3h5-------------------------|
Ab|3h5-5-5-8---5-----x-3h5---5-3h5|3h5-----5---3h5-----------------|
Db|0-------0---0------------------|--------------------------------|
   pm~~~~~~~~~~~~~~~~

Pre-Verse:

   1 e & a 2 e & a 3 e & a 4 e & a 1 e & a 2 e & a 3 e & a 4 e & a
eb|-------------------------------|--------------------------------|
Bb|-------------------------------|--------------------------------|
Gb|-------------------------------|--------------------------------|
Db|------------------x-----3------|------------------------3---3p0-|
Ab|3h5-5-5-8---5-----x-3h5-----3h5|3h5-5-5-8---5-------3h5---------|
Db|0-------0---0------------------|0-------0---0-------------------|
   pm~~~~~~~~~~~~~~~~              pm~~~~~~~~~~~~~~~~~~

   1 e & a 2 e & a 3 e & a 4 e & a 1 e & a 2 e & a 3 e & a 4 e & a
eb|-------------------------------|--------------------------------|
Bb|-------------------------------|--------------------------------|
Gb|-------------------------------|--------------------------------|
Db|------------------x-----3------|------------------------3---3p0-|
Ab|3h5-5-5-8---5-----x-3h5-----3h5|3h5-5-5-8---5-------3h5---------|
Db|0-------0---0------------------|0-------0---0-------------------|
   pm~~~~~~~~~~~~~~~~

eb|-------------------------------|--------------------------------|
Bb|-------------------------------|--------------------------------|
Gb|-------------------------------|--------------------------------|
Db|--------5----------------------|5-------------------------------|
Ab|----5--------------------------|---------3----------------------|
Db|5------------------------------|----3---------------------------|
   let ring~~~~~~~~~~~~~~~~~~~~~~~~~~~~~~~~~~~~~~~~~~~~~~~~~~~~~~~~

Standard

Intro:

   1 e & a 2 e & a 3 e & a 4 e & a 1 e & a 2 e & a 3 e & a 4 e & a
e|-------------------------------|--------------------------------|
B|-------------------------------|--------------------------------|
G|-------------------------------|--------------------------------|
D|--------2---------x-----2------|--------2----------------2------|
A|2h4-4-4-----4-----x-2h4---4-2h4|2h4-4-4-----4--------2h4------4-|
E|2-------------------2----------|2--------------------2----------|
   pm~~~~~~~~~~~~~~~~              pm~~~~~~~~~~~~~~~~~~

   1 e & a 2 e & a 3 e & a 4 e & a 1 e & a 2 e & a 3 e & a 4 e & a
e|-------------------------------|--------------------------------|
B|-------------------------------|--------------------------------|
G|-------------------------------|--------------------------------|
D|--------2---------x-----2------|----2h4-------------------------|
A|2h4-4-4-----4-----x-2h4-----2h4|2h4-----4---2h4-----------------|
E|2-------------------2----------|--------------------------------|
   pm~~~~~~~~~~~~~~~~

Pre-Verse:

   1 e & a 2 e & a 3 e & a 4 e & a 1 e & a 2 e & a 3 e & a 4 e & a
eb|-------------------------------|--------------------------------|
Bb|-------------------------------|--------------------------------|
Gb|-------------------------------|--------------------------------|
Db|--------2---------x-----2------|--------2---------------2---2---|
Ab|2h4-4-4-----2-----x-2h4-----2h4|2h4-4-4-----4-------2h4-------4-|
Db|2-------------------2----------|2-------------------------------|
   pm~~~~~~~~~~~~~~~~              pm~~~~~~~~~~~~~~~~~~

   1 e & a 2 e & a 3 e & a 4 e & a 1 e & a 2 e & a 3 e & a 4 e & a
eb|-------------------------------|--------------------------------|
Bb|-------------------------------|--------------------------------|
Gb|-------------------------------|--------------------------------|
Db|--------2---------x-----2------|--------2---------------2---2---|
Ab|2h4-4-4-----4-----x-2h4-----2h4|2h4-4-4-----4-------2h4-------4-|
Db|2------------------------------|2-------------------------------|
   pm~~~~~~~~~~~~~~~~

   1 e & a 2 e & a 3 e & a 4 e & a 1 e & a 2 e & a 3 e & a 4 e & a
eb|-------------------------------|--------------------------------|
Bb|-------------------------------|--------------------------------|
Gb|-------------------------------|--------------------------------|
Db|--------4----------------------|4-------------------------------|
Ab|----4--------------------------|---------2----------------------|
Db|4------------------------------|----2---------------------------|
   let ring~~~~~~~~~~~~~~~~~~~~~~~~~~~~~~~~~~~~~~~~~~~~~~~~~~~~~~~~

email me with questions and comments - tomackerly@gmail.com
Tap to rate this tab
 
# A B C D E F G H I J K L M N O P Q R S T U V W X Y Z