Song name
# A B C D E F G H I J K L M N O P Q R S T U V W X Y Z

Misc Unsigned Bands - Die Filos - Ahoi Brause tab

DIE FILOS - AHOI BRAUSE
2009
Standard Tuning

Intro:
-----------------------------------------------------------------------|
-----------------------------------------------------------------------|
-------------------------4-4-4-4-------------------------4-4-4-4-------|
---------6-6-6-6-6-6-6-6-4-4-4-4-4-4-4-4-6-6-6-6-6-6-6-6-4-4-4-4-4---4-|
-///////-6-6-6-6-6-6-6-6-2-2-2-2-4-4-4-4-6-6-6-6-6-6-6-6-2-2-2-2-4---4-|
-///////-4-4-4-4-4-4-4-4---------2-2-2-2-4-4-4-4-4-4-4-4---------2---2-|

Lead:
-------------------------------------------------|
-------16----14-16-14-16-12-1212-11h12p11--------|
-13-13----13------------------------------11-11/-|
-------------------------------------------------|
-------------------------------------------------|
-------------------------------------------------|

Verse:
------------------------------------------------------------------|
------------------------------------------------------------------|
-xx-----------------4-4-4-4-6-6-6-6-----------------4-4-4-4-6---6-|
-xx-6-6-6-6-6-6-6-6-4-4-4-4-6-6-6-6-6-6-6-6-6-6-6-6-4-4-4-4-6---6-|
-xx-6-6-6-6-6-6-6-6-2-2-2-2-4-4-4-4-6-6-6-6-6-6-6-6-2-2-2-2-4---4-|
-xx-4-4-4-4-4-4-4-4-----------------4-4-4-4-4-4-4-4---------------|
pm: . . . . . . . . . . . . . . . . . . . . . . . . . . . .

Chorus:
-----------------------------------------------------------------|
-----------------------------------------------------------------|
-----------------4-4-4-4-------------------------4-4-4-4---------|
-6-6-6-6-6-6-6-6-4-4-4-4-4-4-4-4-6-6-6-6-6-6-6-6-4-4-4-4-4-4-4-4-|
-6-6-6-6-6-6-6-6-2-2-2-2-4-4-4-4-6-6-6-6-6-6-6-6-2-2-2-2-4-4-4-4-|
-4-4-4-4-4-4-4-4---------2-2-2-2-4-4-4-4-4-4-4-4---------2-2-2-2-|

---------------------------------------------------------------|
---------------------------------------------------------------|
-----------------4-4-4-4-------------------------4-4-4-4-------|
-6-6-6-6-6-6-6-6-4-4-4-4-4-4-4-4-6-6-6-6-6-6-6-6-4-4-4-4-4---4-|
-6-6-6-6-6-6-6-6-2-2-2-2-4-4-4-4-6-6-6-6-6-6-6-6-2-2-2-2-4---4-|
-4-4-4-4-4-4-4-4---------2-2-2-2-4-4-4-4-4-4-4-4---------2---2-|

Interlude:
--------------------------------------------------------------|
-5-4-2-4-2---2h4-4/5-5/7-7/9~~--------------------------------|
-----------4--------------------------------------------------|
--------------------------------------------------------------|
--------------------------------------------------------------|
--------------------------------------------------------------|

--------------------------------------------------------------|
-5-4-2-4-2----------------------------------------------------|
-----------4-2------------------------------------------------|
---------------4-2--------------------------------------------|
-------------------4-2----------------------------------------|
-----------------------4-2-4~~--------------------------------|

Verse:
------------------------------------------------------------------|
------------------------------------------------------------------|
-xx-----------------4-4-4-4-6-6-6-6-----------------4-4-4-4-6---6-|
-xx-6-6-6-6-6-6-6-6-4-4-4-4-6-6-6-6-6-6-6-6-6-6-6-6-4-4-4-4-6---6-|
-xx-6-6-6-6-6-6-6-6-2-2-2-2-4-4-4-4-6-6-6-6-6-6-6-6-2-2-2-2-4---4-|
-xx-4-4-4-4-4-4-4-4-----------------4-4-4-4-4-4-4-4---------------|
pm: . . . . . . . . . . . . . . . . . . . . . . . . . . . .

Chorus:
-----------------------------------------------------------------|
-----------------------------------------------------------------|
-----------------4-4-4-4-------------------------4-4-4-4---------|
-6-6-6-6-6-6-6-6-4-4-4-4-4-4-4-4-6-6-6-6-6-6-6-6-4-4-4-4-4-4-4-4-|
-6-6-6-6-6-6-6-6-2-2-2-2-4-4-4-4-6-6-6-6-6-6-6-6-2-2-2-2-4-4-4-4-|
-4-4-4-4-4-4-4-4---------2-2-2-2-4-4-4-4-4-4-4-4---------2-2-2-2-|

---------------------------------------------------------------|
---------------------------------------------------------------|
-----------------4-4-4-4-------------------------4-4-4-4-------|
-6-6-6-6-6-6-6-6-4-4-4-4-4-4-4-4-6-6-6-6-6-6-6-6-4-4-4-4-4---4-|
-6-6-6-6-6-6-6-6-2-2-2-2-4-4-4-4-6-6-6-6-6-6-6-6-2-2-2-2-4---4-|
-4-4-4-4-4-4-4-4---------2-2-2-2-4-4-4-4-4-4-4-4---------2---2-|

Solo:
-----------------------17b19r17-15~------------------------------------------|
-----------------------------------------------------14p12-14p12-14p12-14p12-|
---4-6b8r6-4-------------------------4-6b8r6-6p4-----12----12----12----12----|
-6-----------6---6/9~~-------------6-------------6---------------------------|
-----------------------------------------------------------------------------|
-----------------------------------------------------------------------------|

--------------------------------------------------|
-12-12-10----------------9~7/9-10p9---------------|
-11-11--9------4-6b8r6-4---7/9------9-11p9--------|
----------11/6-----------------------------11-9~/-|
--------------------------------------------------|
--------------------------------------------------|

-------------7---7-7-7-7-7-7-7------------------------------------|
-------------7---9^9^9^9^9^9^9^-----------------------------------|
---4-6b8r6-4-------------------0-4~~~--4-6~~~6-4~~~4/1-1~~~1------|
-6-----------------------------------6-----------------------2~~~-|
------------------------------------------------------------------|
------------------------------------------------------------------|

--------------------------------------------------------------------|
-21212121212121212121212121212121-2424242424242424-1919191919191919-|
--------------------------------------------------------------------|
--------------------------------------------------------------------|
--------------------------------------------------------------------|
--------------------------------------------------------------------|x3
Tremolo Picking

-12h0---10h0---8h0---7h0---5h0---4h0---2h0---0---4~~~-|
------0------0-----0-----0-----0-----0-----2---2-4~~~-|
------------------------------------------------------|
------------------------------------------------------|
------------------------------------------------------|
------------------------------------------------------|
Tap to rate this tab
# A B C D E F G H I J K L M N O P Q R S T U V W X Y Z