Song name
# A B C D E F G H I J K L M N O P Q R S T U V W X Y Z

Misc Unsigned Bands - Sworn - Electro Rock tab

-------------------------------------------------------------------------------
			     electro rock - sworn 
-------------------------------------------------------------------------------
Tabbed by: Thetroy
Tuning: tsnadard

Solo 1 i got from a video on youtube. at this link:
http://www.youtube.com/watch?v=z5540xR3y1o&feature=related

intro
e|-------------------------------------------------------------2~------------|
B|------------------------------------------------------------3~-------------|
G|-------------------------4---------------5-----------4-----4~--------------|
D|-----4---5p4---4-----5-----5---5-----7-----7---7---4---4--4~---------------|
A|---2---2-----2-----5---5-----5-----7---7-----7---2-------2~----------------|
E|-0---------------3---------------5-----------------------------------------|

verse
e|--------|-other times it does this-----------------------------------------|
B|--------|------------------------------------------------------------------|
G|--------|-------------------------4----------------------------------------|
D|-2--2-xx|-2--2-xx-2-xx-5-2--2-xx--4-5--------------------------------------|
A|-2--2-xx|-2--2-xx-2-xx-5-2--2-xx--2-5--------------------------------------|
E|-0--0-xx|-0--0-xx-0-xx-3-0--0-xx----3--------------------------------------|

solo 1
e|---------------------------------------------------------------------------|
B|-12-5-8-5-12-5-8-5-12-5-8-5-12-5-8-5-13-5-8-5-13-5-8-5-13-5-8-5-13-5-8-5---|
G|---------------------------------------------------------------------------|
D|---------------------------------------------------------------------------|
A|---------------------------------------------------------------------------|
E|---------------------------------------------------------------------------|

e|---------------------------------------------------------------------------|
B|-15-7-12-7-15-7-12-7-15-7-12-7-15-7-12-7-12-5-8-5-12-5-8-5-12-5-8-5-12-5---|
G|---------------------------------------------------------------------------|
D|---------------------------------------------------------------------------|
A|---------------------------------------------------------------------------|
E|---------------------------------------------------------------------------|

e|---------------------------------------------------------------------------|
B|-8-5-----------------------------------------------------------------------|
G|---------------------------------------------------------------------------|
D|---------------------------------------------------------------------------|
A|---------------------------------------------------------------------------|
E|---------------------------------------------------------------------------|

solo pt 2 - idk what it is. i just like to mess with tapping

play verse

play the pt 1 and 2 of solo

solo two pt 1 - just tap like heck

solo two pt 2 - this is all i know right now. you can work with it
e|---------------------------------------------------------------------------|
B|-20-12-20-12-19-12-19-15-8-12-8-12p10p8-10-8h10h12-15-8-15-8-12-8-12-15----|
G|---------------------------------------------------------------------------|
D|---------------------------------------------------------------------------|
A|---------------------------------------------------------------------------|
E|---------------------------------------------------------------------------|

e|---------------------------------------------------------------------------|
B|-8-12-8-12p10p8-10-8h10h12-------------------------------------------------|
G|---------------------------------------------------------------------------|
D|---------------------------------------------------------------------------|
A|---------------------------------------------------------------------------|
E|---------------------------------------------------------------------------|

there. i think thats it
Tap to rate this tab
 
# A B C D E F G H I J K L M N O P Q R S T U V W X Y Z