Song name
# A B C D E F G H I J K L M N O P Q R S T U V W X Y Z

Misc Unsigned Bands - Wika - Rycka tab

-------------------------------------------------------------------------------
			   Rycka - Wika
-------------------------------------------------------------------------------
Tabbed by:Kermeat
Email:dami49@op.pl


Intro
      a                   a                  a             G
e|-----------------------------------------------------------------3---------|
B|------1---0h1-1-----------1---0h1-1----------1---0h1-1--------3--3---------|
G|----2-------------------2------------------2----------------0----0---------|
D|--------2-------------------2------------------2-----------------0---------|
A|--2-------------------------------------3------------------------2---------|
E|0------------------0-1----------------1----------------0-3-------3---------|

    a              F                C                G                                     
e|--0--------------1----------------0----------------3---3---p---0-----|
B|--1--------------1----------------1----------------3-----------------|
G|--2--------------2----------------0----------------0-----------------|
D|--2--------------3----------------2----------------0-----------------|
A|--0--------------3----------------3----------------2-----------------|
E|--0------------0-1----------------3--------------0-3-----------------|

    a              F                C                G                                     
e|--0--------------1----------------0----------------3-----------------|
B|--1--------------1----------------1----------------3-----------------|
G|--2--------------2----------------0----------------0-----------------|
D|--2--------------3----------------2----------------0-----------------|
A|--0--------------3----------------3----------------2-----------------|
E|--0------------0-1----------------3--------------0-3-----------------|


  Verse

e|--------------------------------------------------|
B|--------------------------------------------------|
G|--------------------------------------------------| x 3
D|----x--3-x-----x--3--x-----x-----x-----x-----x----|
A|--3-x----x--3--x-----x-----x--3--x-----x--3--x----|
E|----x----x-----x-----x--1--x-----x--1--x-----x----|


  than
                      F
e|--------------------1--1--1---|
B|--------------------1--1--1---|
G|--------------------2--2--2---| 
D|----x--3-x-----x--3-3--3--3---|
A|--3-x----x--3--x----3--3--3---|
E|----x----x-----x----1--1--1---|
    
  Rycka, Rycka

e|------------------------------------------|
B|------------------------------------------|
G|------------------------------------------|
D|----x--3-x----x-----x----x--3-x----x----x-| x3
A|--3-x----x----x--3--x--3-x----x----x--3-x-|
E|----x----x--1-x-----x----x----x--1-x----x-|

  than
                                  F
e|-------------------------------1--1---|
B|-------------------------------1--1---|
G|-------------------------------2--2---|
D|----x--3-x----x-----x----x--3--3--3---| 
A|--3-x----x----x--3--x--3-x-----3--3---|
E|----x----x--1-x-----x----x-----1--1---|

e|--------------------------------------------|
B|--------------------------------------------|
G|--------------------------------------------|
D|----x--3-x----x-----x----x--3-x----x----x---|
A|--3-x----x----x--3--x--3-x----x----x--3-x---|
E|----x----x--1-x-----x----x----x--1-x----x---|

                                  F
e|-------------------------------1--1--|
B|-------------------------------1--1--|
G|-------------------------------2--2--|
D|----x--3-x----x-----x----x--3--3--3--| 
A|--3-x----x----x--3--x--3-x-----3--3--|
E|----x----x--1-x-----x----x-----1--1--|

 Verse

e|-----------------------------------------------|
B|-----------------------------------------------|
G|-----------------------------------------------| x 3
D|----x--3-x-----x--3--x-----x-----x-----x-----x-|
A|--3-x----x--3--x-----x-----x--3--x-----x--3--x-|
E|----x----x-----x-----x--1--x-----x--1--x-----x-|

                      F
e|--------------------1--1----|
B|--------------------1--1----|
G|--------------------2--2----|
D|----x--3-x-----x--3-3--3----|
A|--3-x----x--3--x----3--3----|
E|----x----x-----x----1--1----|


e|------------------------------------------------|
B|------------------------------------------------|
G|------------------------------------------------| 
D|----x--3-x-----x--3--x-----x-----x-----x-----x--|
A|--3-x----x--3--x-----x-----x--3--x-----x--3--x--|
E|----x----x-----x-----x--1--x-----x--1--x-----x--|

                      F
e|--------------------1--|
B|--------------------1--|
G|--------------------2--| 
D|----x--3-x-----x--3-3--|
A|--3-x----x--3--x----3--|
E|----x----x-----x----1--|


e|------------------------------------------------|
B|------------------------------------------------|
G|------------------------------------------------| 
D|----x--3-x-----x--3--x-----x-----x-----x-----x--|
A|--3-x----x--3--x-----x-----x--3--x-----x--3--x--|
E|----x----x-----x-----x--1--x-----x--1--x-----x--|

                      F
e|--------------------1--1--------------------1--1--1--1--1-|
B|--------------------1--1--------------------1--1--1--1--1-|
G|--------------------2--2--------------------2--2--2--2--2-|
D|----x--3-x-----x--3-3--3--------------------3--3--3--3--3-|
A|--3-x----x--3--x----3--3--------------------3--3--3--3--3-|
E|----x----x-----x----1--1--------------------1--1--1--1--1-|

 Rycka, Rycka 


e|------------------------------------------|
B|------------------------------------------|
G|------------------------------------------|
D|----x--3-x----x-----x----x--3-x----x----x-| x3
A|--3-x----x----x--3--x--3-x----x----x--3-x-|
E|----x----x--1-x-----x----x----x--1-x----x-|

  than
                                  F
e|-------------------------------1--1---|
B|-------------------------------1--1---|
G|-------------------------------2--2---|
D|----x--3-x----x-----x----x--3--3--3---| 
A|--3-x----x----x--3--x--3-x-----3--3---|
E|----x----x--1-x-----x----x-----1--1---|

e|--------------------------------------------|
B|--------------------------------------------|
G|--------------------------------------------|
D|----x--3-x----x-----x----x--3-x----x----x---|
A|--3-x----x----x--3--x--3-x----x----x--3-x---|
E|----x----x--1-x-----x----x----x--1-x----x---|


Outro
                                  F          a
e|-------------------------1----------1--------------0-------0--|
B|-------------------------1----------1----------------1-----1--|
G|-------------------------2----------2-------------2----2---2--|
D|----x--3-x----x-----x----3----------3-----------2----------2--| 
A|--3-x----x----x--3--x----3----------3---------0------------0--|
E|----x----x--1-x-----x----1----------1-------0--------------0--|




| /  slide up
| \  slide down
| h  hammer-on
| p  pull-off
| ~  vibrato
| +  harmonic
| x  Mute note
===============================================================================
Tap to rate this tab
 
# A B C D E F G H I J K L M N O P Q R S T U V W X Y Z