Guitaretab - guitar tabs
Song name
# A B C D E F G H I J K L M N O P Q R S T U V W X Y Z

Misc Unsigned Bands - Shannon Moore - Wwe Theme tab

-------------------------------------------------------------------------------
			     WWE Theme - Shannon Moore
-------------------------------------------------------------------------------
Tabbed by: Axel W
Email: axel_871016@hotmail.com

Tuning: Standard

This is Shannon Moore's theme song.
The instrumental version, not the whole "I'll Do Anything" song.


Chords:
    C    G    A(m) F
e|--------------------|
B|--------------------|
G|--5-----------------|
D|--5----5----7----3--|
A|--3----5----7----3--|
E|-------3----5----1--|
[ Tab from: http://www.guitaretab.com/m/misc-unsigned-bands/177593.html ]
Verse riff:
   C         G         A         F
e|---------|---------|---------|---------|
B|---------|---------|---------|---------|
G|---------|---------|---------|---------|
D|-----2-3-|-----2-3-|-----2-3-|-----2-3-|
A|-3-3-----|---------|---------|---------|
E|---------|-3-3-----|-5-5-----|-1-1-----|

Verse:
    |     | A A | F F |
C C | G G | A A | F F | X 5
C C | G G | cho | cho |

Chorus:
F F | F F | C C | C C |
G G | G G | G G | A G |

The keyboard(?) soloriff during the chorus I'm not sure about,
but it starts like this:
e|--15-17-12-15----12--|
B|--------------15-----|
G|---------------------|
D|---------------------|
A|---------------------|
E|---------------------|

And then you use these notes if you want to improvise:
e|--12-13-15-17--------|
B|--12-13-15-----------|
G|--12-14--------------|
D|---------------------|
A|---------------------|
E|---------------------|
Related for Shannon Moore - Wwe Theme tab
Advertisement will be closed in 10 seconds