Song name
# A B C D E F G H I J K L M N O P Q R S T U V W X Y Z

Misc Unsigned Bands - Worthless Peons - Intern Webisode Theme tab

This is my very first tab, I know everyone says it, but at least you'll know why this 
sucks if you think it sucks. DOn't mention how there isn't any guitar in it, I just tried 
match it with the singing and I think it works out.

The top note isn't necassary
EX:  d-3-3-3-3-3-3-3-3--5-5-5-5-5-5-5-5-|
     a-1-1-1-1-1-1-1-1--3-3-3-3-3-3-3-3-|


Leave corrections in a comment, along with your opinion.

http://www.youtube.com/watch?v=Kc-MNav6DXM&feature=related

That's a link to hear the intro.


e----------------------------------------------------------|
b----------------------------------------------------------|
g--3-3-3-3-3-3-3-3--5-5-5-5-5-5-5-5--7-7-7-7-7-7-7-7-------|
d--3-3-3-3-3-3-3-3--5-5-5-5-5-5-5-5--7-7-7-7-7-7-7-7-------|
a--1-1-1-1-1-1-1-1--3-3-3-3-3-3-3-3--5-5-5-5-5-5-5-5-------|
E----------------------------------------------------------|


e----------------------------------------------------------|
b-------------------------------------------5-7-5-7--------|LET IT RING
g-------------------------------------------5-7-5-7--------|INTO THE NEXT
d--7-7-7-7-7-7-7-7--9-9-9-9-7-7-7-7-5-5-5-5-3-5-3-5--------|PART
a--7-7-7-7-7-7-7-7--9-9-9-9-7-7-7-7-5-5-5-5----------------|
E--5-5-5-5-5-5-5-5--7-7-7-7-5-5-5-5-3-3-3-3----------------|


e----------------------------------------------------------|
b----------------------------------------------------------|
g----7-7-7-7-7-7-7-7---------------------------------------|
d----7-7-7-7-7-7-7-7---------------------------------------|
a----5-5-5-5-5-5-5-5---------------------------------------|
E----------------------------------------------------------|


e----------------------------------------------------------|
b-------------------------------------------5-7-5-7--------|HOLD UNTIL
g-------------------------------------------5-7-5-7--------|THE END
d--7-7-7-7-7-7-7-7--9-9-9-9-7-7-7-7-5-5-5-5-3-5-3-5--------|
a--7-7-7-7-7-7-7-7--9-9-9-9-7-7-7-7-5-5-5-5----------------|
E--5-5-5-5-5-5-5-5--7-7-7-7-5-5-5-5-3-3-3-3----------------|
Tap to rate this tab
# A B C D E F G H I J K L M N O P Q R S T U V W X Y Z