Song name
# A B C D E F G H I J K L M N O P Q R S T U V W X Y Z

Misc Unsigned Bands - Die Filos - Glhwrmchen tab

DIE FILOS - GLÜHWÜRMCHEN
2009
STANDARD TUNING

-0---7---9---5---|
-0---7---9---5---|
-1---8---9---6---|
-2---9--11---7---|
-2---9--11---7---|
-0---7---9---5---|
 E   B  C#m  A

E B C#m A

E        B
Die Welt ist ein Fenster
C#m    A
Und du kannst es öffnen

INTRO:
----------------------------------------------------------|
----------------------------------------------------------|
-9-9-----------9-9----------------------------------------|
-9-9-----------9-9----------1111----------7-7-7-7-7-7-7-7-|
-7-7-----------7-7----------1111----------7-7-7-7-7-7-7-7-|
-----------------------------9-9----------5-5-5-5-5-5-5-5-|

----------------------------------------------------------|
----------------------------------------------------------|
-9-9-----------9-9----------------------------------------|
-9-9-----------9-9----------1111----------7-7-7-7-7-7-7-7-|
-7-7-----------7-7----------1111----------7-7-7-7-7-7-7-7-|
-----------------------------9-9----------5-5-5-5-5-5-5-5-|
PM:                                       . . . (gradual release)

-----------------------------------------------------------------|
-----------------------------------------------------------------|
-----8/9/8-6---6-----8/9/8-6---------8/9/8-6---6-----8/9/8-6-----|
-------------9---------------9---------------9---------------9---|
-7-7-------------7-7---------------------------------------------|
---------------------------------9-9-------------5-5-------------|x2

VERSE 1:
----------------------------------------------------------|
----------------------------------------------------------|
-9-9-----------9-9----------------------------------------|
-9-9-----------9-9----------1111----------7-7-7-7-7-7-7-7-|
-7-7-----------7-7----------1111----------7-7-7-7-7-7-7-7-|
-----------------------------9-9----------5-5-5-5-5-5-5-5-|x2

INTERLUDE:
-----------------------------------------------------------------|
-----------------------------------------------------------------|
-----8/9/8-6---6-----8/9/8-6---------8/9/8-6---6-----8/9/8-6-----|
-------------9---------------9---------------9---------------9---|
-7-7-------------7-7---------------------------------------------|
---------------------------------9-9-------------5-5-------------|x2

VERSE 2:
----------------------------------------------------------|
----------------------------------------------------------|
-9-9-----------9-9----------------------------------------|
-9-9-----------9-9----------1111----------7-7-7-7-7-7-7-7-|
-7-7-----------7-7----------1111----------7-7-7-7-7-7-7-7-|
-----------------------------9-9----------5-5-5-5-5-5-5-5-|x2

CHORUS 1:
-7---7---7-7-7---7---7-7-9---9---9-9-|
-7---7---7-7-7---7---7-7-9---9---9-9-|
-9---9---9-9-8---8---8-8-9---9---9-9-|
-9---9---9-9-9---9---9-911--11--1111-|
-7---7---7-7-9---9---9-911--11--1111-|
-------------7---7---7-7-9---9---9-9-|x2

----------------------------------------------------------|
----------------------------------------------------------|
-9-9-----------9-9----------------------------------------|
-9-9-----------9-9----------1111-xxxxxxxx-7-7-7-7-7-7-7-7-|
-7-7-----------7-7----------1111-xxxxxxxx-7-7-7-7-7-7-7-7-|
-----------------------------9-9-xxxxxxxx-5-5-5-5-5-5-5-5-|

------------------------------------------------------|
-----8b9r8--------------------------------------------|
-----8b9r8-6h8p6---8-----11~--12p10----13p10----12p10-|
-----------------6-------11~--------10-------10-------|
-7-7-----------------7-7------------------------------|
------------------------------------------------------|

---------------------------------|
-----9-9-9-9-9-9-----------------|
----11^^^^(bend)-----------------|
-----------------7-7-7-7-7-7-7-7-|
-----------------7-7-7-7-7-7-7-7-|
-9-9-------------5-5-5-5-5-5-5-5-|
PM:              . . . . . . . .

VERSE 3:
----------------------------------------------------------|
----------------------------------------------------------|
-9-9-----------9-9----------------------------------------|
-9-9-----------9-9----------1111----------7-7-7-7-7-7-7-7-|
-7-7-----------7-7----------1111----------7-7-7-7-7-7-7-7-|
-----------------------------9-9----------5-5-5-5-5-5-5-5-|

------7------------7-------------9-----------------------|
---------7------------7-------------11-------------------|
-9-9--------9-9-9--------9------------11-----------------|
-9-9----------9-9----------1111----------7-7-7-7-7-7-7-7-|
-7-7----------7-7----------1111----------7-7-7-7-7-7-7-7-|
----------------------------9-9----------5-5-5-5-5-5-5-5-|

CHORUS 2:
-------------------------------------------------------------------|
-------------------------------------------------------------------|
-9-9-9-9-9-9-9-9-9-------------------------------------------------|
-9-9-9-9-9-9-9-9-9-9-9-9-9-9-9-9-91111111111111111-7-7-7-7-7-7-7-7-|
-7-7-7-7-7-7-7-7-7-9-9-9-9-9-9-9-91111111111111111-7-7-7-7-7-7-7-7-|
-------------------7-7-7-7-7-7-7-7-9-9-9-9-9-9-9-9-5-5-5-5-5-5-5-5-|x2

Bass Interlude:
E B C#m A x4

OUTRO:
-------------------------------------------------------------------|
-------------------------------------------------------------------|
-9-9-9-9-9-9-9-9-9-------------------------------------------------|
-9-9-9-9-9-9-9-9-9-9-9-9-9-9-9-9-91111111111111111-7-7-7-7-7-7-7-7-|
-7-7-7-7-7-7-7-7-7-9-9-9-9-9-9-9-91111111111111111-7-7-7-7-7-7-7-7-|
-------------------7-7-7-7-7-7-7-7-9-9-9-9-9-9-9-9-5-5-5-5-5-5-5-5-|x4
Tap to rate this tab
# A B C D E F G H I J K L M N O P Q R S T U V W X Y Z