Song name
# A B C D E F G H I J K L M N O P Q R S T U V W X Y Z

Misc Unsigned Bands - Blue Dragons - Hrk Joks Si Mars Patukkaa Joka Maistui Aivan Paavo Pesusienelle tab

   (heavy distortion)
|-----------------------------------------------------------|
|-----------------------------------------------------------|
|------------------------5--4----------------------9--------|
|-3--5--7-------3--5--7-----------3--5--7----3--5--7--------|
|-----------------------------------------------------------|
|-----------------------------------------------------------|

   (acoustic sound)

|--------------------------------|  |-------------------------------------|
|-----------5--------------------|  |-----------5-------------------------|
|----5-----5---5-----4-----------|  |----5-----5---5-----4----------------|
|---7-----3---5-----5-----3-----5|  |---7-----3---5-----5-----3-----5-----|
|--7---------3-----5-----3-----5-|  |--7---------3-----5-----3-----5------|
|-5---------------3-----1-----3--|  |-5---------------3-----1-----3-------|
Tap to rate this tab
 
# A B C D E F G H I J K L M N O P Q R S T U V W X Y Z