Song name
# A B C D E F G H I J K L M N O P Q R S T U V W X Y Z

Misc Unsigned Bands - Luke Keel - Beatdown Cowboy tab

Capo on 4th fret

e|---1p0---1p0-------           e|---1p0-0--1p0-0---0---|
B|-------1-----1-1h3-           B|---0---1------1---1h3-|
G|-------------------           G|---0---0------0---0---|
D|---0---0-----0-0---   x4      D|----------------------|   x7
A|-------------------           A|----------------------|
E|-------------------           E|----------------------|
                                     +   +      +    +


e|-----0-0-00-0-0-00h3-3-333-0-0h1-1-1-1-1-|
B|-----1-1-11-1-1-11---1-111-0-0---0-0-0-0-|
G|-----2-2-22-2-2-22---2-222-2-2---2-2-2-2-|
D|-----2-2-22-2-2-22---2-----2-2---2-2-2-2-|  Continue throughout
A|-----0-0-00-0-0-00---0-----0-0---0-0-0-0-|   the rest of the song
E|-----------------------------------------|
       + + -+ + - ++   - --- + +   + - + -

Key
+ = down strum
- = up strum
h = hammer on
p = pull off

this is something i made up so you can do whatever but tell me how you like it
Tap to rate this tab
 
# A B C D E F G H I J K L M N O P Q R S T U V W X Y Z