Song name
# A B C D E F G H I J K L M N O P Q R S T U V W X Y Z

Misc Unsigned Bands - Crusin Usa - Roadkill Jam tab

H-Hammer
P-Pull


e|--------------------------------------------------------------------|
B|--------------------------------------------------------------------|
G|----7--6---------7--6------9---7--6-----6--7---6h7h6---7--6---------|
D|----------7--5---------7-------------7-------------------------7--5-|
A|--------------------------------------------------------------------|
E|--------------------------------------------------------------------|

e|--------------------------------------------------------------------|
B|--------------------------------------------------------------------|
G|---7--6----------7--6------9----------------------------------------|
D|----------7--5---------7----------7--9--7--5--7--5--3---------------|
A|-------------------------------------------------------5h3p0--------|
E|--------------------------------------------------------------------|

Repeat
Tap to rate this tab
# A B C D E F G H I J K L M N O P Q R S T U V W X Y Z